Guitaretab - guitar tabs
Song name
# A B C D E F G H I J K L M N O P Q R S T U V W X Y Z

Cabezones - Pasajero En Extincion tab

Highlighted       Show chord diagrams
CABEZONES – Pasajero en extinción

ACORDES:

Cd#   X-4-6-6-4-X
G#    4-6-6-4-4-X
E     0-2-2-3-0-0
F#    2-4-4-3-2-2
Bc    X-2-4-4-2-2

INTRODUCCION:

Cd#   G#
Cd#   G#
E     F#   Cd#

PRIMERA Y SEGUNDA ESTROFA:

   Cd#         G#
...ay!, sus palabras...

   Cd#         G#
...ay!, mi esperanza...

     E           
...muestrame mis dudas...

     F#              Cd#
...enseñame a desconocer...


ESTRIBILLO 1:

     Bc 
...Invitame a vivir...

            F#             
...en lo profundo de mi ocaso...

       Cd#
...me elevare...

   E              
...soy un pasajero en extin(ción)...

     Bc 
...Invitame a vivir...

            F#             
...en lo profundo de mi ocaso...

       Cd#          E   Cd#
...me elevare...

TERCERA ESTROFA:

   Cd#                    G#
...un brujo infértil derramo su lealtad...

   Cd#                 G#
...la ouija muda acompaño su impiedad...

     E           
...avisame si atacan...

     F#             Cd#
...enseñame su desnudez...

ESTRIBILLO 2:
[ Tab from: http://www.guitaretab.com/c/cabezones/74257.html ]
     Bc 
...Invitame a vivir...

            F#             
...en lo profundo de mi ocaso...

     Cd#
...estallare...

   E
...soy un pasajero en extin(ción)...

   Bc         F#         Cd#    E  Cd#
......busque......busque...

FINAL:

   Cd#            G#
...las palabras nacieron sin correr...

   Cd#               G#
...un angel ciego cansado de morder...

      E           
...mi cielo...

      F#         Cd#
...un cielo de papel...

       Bc  F#  Cd#           E        
e |--------14---------------------------------
b |-14/16------12--14--12-11-12--14-12h14-14--
g |-------------------------------------------
d |-------------------------------------------
a |-------------------------------------------
e |-------------------------------------------

        Bc          F#           Cd#     E        
e |--------14-14-14/11--14-14p11-16-----------
b |--14/16------------------------------------
g |-------------------------------------------
d |-------------------------------------------
a |-------------------------------------------
e |-------------------------------------------

   Bc           F#    Cd#
...y la imagen sola...
Related for Pasajero En Extincion tab