Song name
# A B C D E F G H I J K L M N O P Q R S T U V W X Y Z

Cady Groves - One World tab

One World
---
Cady Groves
------

Tuning, Standard (EADGBE)

Having transcribed some of her other songs (which I may put up later),
this one was probably the hardest. Probably the most complex chord-wise
on the album, but it sounds really cool.

===================================================

These are the chords for the verses.


     D        D7M         Asus2/D           
                
E||--2--------2--------|--0----------------|
B||--3--------2--------|--0----------------|
G||--2--------2--------|--2----------------|
D||--0--------0--------|--0----------------|
A||--------------------|-------------------|
E||--------------------|-------------------|


  D        F#m/D       A#       D5                    
                
--2--------2--------|--------------------|-----------|
--3--------2--------|--------------------|-----------|
--2--------2--------|--3--------2--------|-----------|
--0--------0--------|--0--------0--------|-----------|
--------------------|--------------------|-----------|
--------------------|--------------------|-----------|


===================================================

These chords are used in the chorus.


  D        G           A7sus4   A5                    
              
--2--------3--------|--------------------|-----------|
--3--------3--------|--3-----------------|-----------|
--2--------0--------|--0--------2--------|-----------|
--0--------0--------|--2--------2--------|-----------|
-----------2--------|--0--------0--------|-----------|
-----------3--------|--------------------|-----------|


===================================================


The bridge just uses power chords.


  D5       G5          E5       A5         
   
--------------------|--------------------||
--------------------|--------------------||
--7-----------------|-----------2--------||
--7--------5--------|--2--------2--------||
--5--------5--------|--2--------0--------||
-----------3--------|--0-----------------||


And that's it. Have fun
Tap to rate this tab
# A B C D E F G H I J K L M N O P Q R S T U V W X Y Z