Song name
# A B C D E F G H I J K L M N O P Q R S T U V W X Y Z

Caesars - Crackin Up tab

Help us improve GuitareTab! Take a short survey!
Song: Crackin Up
Band: Caesars
Album: Cherry Kicks
Tabbed by: Mark Roxx

x=mute note
h=hammer-on
p=pull-off

Main part- Played through the whole song
e|-------------------------------|
B|-------------------------------|
G|--2-x-x-2-x-x-2-x-x-2-x-2-x-2--|
D|-------------------------------|
A|-------------------------------|
E|-------------------------------|

Solo: Not on the guitar but you can play it like this.
e|--6-6-8-8-10-10----8-10-3----6-6-8-8-10-10----8-10-6--|
B|------------------------------------------------------|
G|------------------------------------------------------|
D|------------------------------------------------------|
A|------------------------------------------------------|
E|------------------------------------------------------|

Part at the end
e|---------------------------------------------------------|
B|--14-12-12-12-12-12-12h14----14-12-12-12-12-12-14p12p10--|
G|---------------------------------------------------------|
D|---------------------------------------------------------|
A|---------------------------------------------------------|
E|---------------------------------------------------------|

(continued)
e|--17-15-15-15-15-15-17p15----17-15-15-15-15-15-14-17--|
B|------------------------------------------------------|
G|------------------------------------------------------|
D|------------------------------------------------------|
A|------------------------------------------------------|
E|------------------------------------------------------|

(continued)
e|--17-17-17-17-17-17-15-17-----------------------------|
B|-----------------------------12-12-12-12-12-12-14-12--|
G|------------------------------------------------------|
D|------------------------------------------------------|
A|------------------------------------------------------|
E|------------------------------------------------------|

(continued)
e|--17-----------------------|
B|-----12-12-12-12-12-14-12--|
G|---------------------------|
D|---------------------------|
A|---------------------------|
E|---------------------------|

There. That's the whole thing. It's pretty fun to play.
Related for Crackin Up tab