Song name
# A B C D E F G H I J K L M N O P Q R S T U V W X Y Z

Cake - Short Skirt Long Jacket tab

-------------------------------------------------------------------------------
			Short Skirt Long Jacket - Cake
-------------------------------------------------------------------------------
Tabbed by: Andres "silvadolla" Ali
Email: andres.ali@gmail.com

Tuning: EADGBE (STANDARD)

Yea so, I was listening to the song, and I heard the lovely horn solo, I tabbed it out, 
I ended up wanting to play the rest of the song, so here's my version. (NOTE: the chorus 
to be a bit off)

Intro/Verse:
e|---------------------------------------------------------------------------|
B|-3-1-3-1-3-3-3p1-----------------------------------------------------------|
G|---------------------------------------------------------------------------|
D|---------------------------------------------------------------------------|
A|---------------------------------------------------------------------------|
E|-----------------1-3-5-----------------------------------------------------| x5

e|---------------------------------------------------------------------------|
B|--3-1----------------------------------------------------------------------|
G|------0--------------------------------------------------------------------|
D|---------------------------------------------------------------------------|
A|---------------------------------------------------------------------------|
E|--------1-2-3-5------------------------------------------------------------|

e|---------------------------------------------------------------------------|
B|---------------------------------------------------------------------------|
G|--7-7----------------------------------------------------------------------|
D|--7-7-7--5-5--7------------------------------------------------------------|x4
A|--5-5-7--5-5--7------------------------------------------------------------|
E|------5--3-3--5------------------------------------------------------------|

Chorus:

e|---------------------------------------------------------------------------|
B|-------------------------------2---3---4-----5-----------------------------|
G|---2-2----------2-2----------2--2-2-2-2--2-2-------------------------------|
D|---------------------------------------------------------------------------|
A|---------------------------------------------------------------------------|
E|---------------------------------------------------------------------------|
\

Verse:
e|---------------------------------------------------------------------------|
B|-3-1-3-1-3-3-3p1-----------------------------------------------------------|
G|---------------------------------------------------------------------------|
D|---------------------------------------------------------------------------|
A|---------------------------------------------------------------------------|
E|-----------------1-3-5-----------------------------------------------------| x5

e|---------------------------------------------------------------------------|
B|--3-1----------------------------------------------------------------------|
G|------0--------------------------------------------------------------------|
D|---------------------------------------------------------------------------|
A|---------------------------------------------------------------------------|
E|--------1-2-3-5------------------------------------------------------------|

e|---------------------------------------------------------------------------|
B|---------------------------------------------------------------------------|
G|--7-7----------------------------------------------------------------------|
D|--7-7-7--5-5--7------------------------------------------------------------|x4
A|--5-5-7--5-5--7------------------------------------------------------------|
E|------5--3-3--5------------------------------------------------------------|
e|---------------------------------------------------------------------------|
B|-------------------------------2---3---4-----5-----------------------------|
G|---2-2----------2-2----------2--2-2-2-2--2-2-------------------------------|
D|---------------------------------------------------------------------------|
A|---------------------------------------------------------------------------|
E|---------------------------------------------------------------------------|

Horn solo:
e|---------2----------------2-3-2-3-2-3-2-3---2-3-2-3-2-3-2-3---2-3-2-3-3-2--|
B|-----3-5----3---------3-5--------------------------------------------------|
G|---2----------2-0---2------------------------------------------------------|
D|-4----------------4--------------------------------------------------------|
A|---------------------------------------------------------------------------|
E|---------------------------------------------------------------------------|

Verse:
e|---------------------------------------------------------------------------|
B|-3-1-3-1-3-3-3p1-----------------------------------------------------------|
G|---------------------------------------------------------------------------|
D|---------------------------------------------------------------------------|
A|---------------------------------------------------------------------------|
E|-----------------1-3-5-----------------------------------------------------| x5

e|---------------------------------------------------------------------------|
B|--3-1----------------------------------------------------------------------|
G|------0--------------------------------------------------------------------|
D|---------------------------------------------------------------------------|
A|---------------------------------------------------------------------------|
E|--------1-2-3-5------------------------------------------------------------|

e|---------------------------------------------------------------------------|
B|---------------------------------------------------------------------------|
G|--7-7----------------------------------------------------------------------|
D|--7-7-7--5-5--7------------------------------------------------------------|x4
A|--5-5-7--5-5--7------------------------------------------------------------|
E|------5--3-3--5------------------------------------------------------------|

Chorus:

e|---------------------------------------------------------------------------|
B|-------------------------------2---3---4-----5-----------------------------|
G|---2-2----------2-2----------2--2-2-2-2--2-2-------------------------------|
D|---------------------------------------------------------------------------|
A|---------------------------------------------------------------------------|
E|---------------------------------------------------------------------------|
\

Horn solo:
e|---------2----------------2-3-2-3-2-3-2-3---2-3-2-3-2-3-2-3---2-3-2-3-3-2--|
B|-----3-5----3---------3-5--------------------------------------------------|
G|---2----------2-0---2------------------------------------------------------|
D|-4----------------4--------------------------------------------------------|
A|---------------------------------------------------------------------------|
E|---------------------------------------------------------------------------|

Outro
e|---------------------------------------------------------------------------|
B|-3-1-3-1-3-3-3p1-----------------------------------------------------------|
G|---------------------------------------------------------------------------|
D|---------------------------------------------------------------------------|
A|---------------------------------------------------------------------------|
E|-----------------1-3-5-----------------------------------------------------| x2

Fine

Enjoy! Please email me with any comments/corrections/suggestions. Thanks!


| /  slide up
| \  slide down
| h  hammer-on
| p  pull-off
| ~  vibrato
| +  harmonic
| x  Mute note
===============================================================================
Tap to rate this tab
 
# A B C D E F G H I J K L M N O P Q R S T U V W X Y Z