Song name
# A B C D E F G H I J K L M N O P Q R S T U V W X Y Z

Calixa Lavalle - Oh Canada tab

~ = vibrato
/ = slide

E----------------------|-----------------------|
B----------------------|-----------------------|
G----5-5---0-2-3-5/7---|-2-4-4/5-5/9-9-9-7-7-5-|
D--2~----3-----------5-|-----------------------|
A----------------------|-----------------------|
E----------------------|-----------------------|


E--------------------------------------|
B--------------------------------------|
G--0-2-3-2-0-2-3-5-3-2-2-0-5-5/4-2-4-5-|
D--------------------------------------|
A--------------------------------------|
E--------------------------------------|


E---------------------------------------------------------------|
B---------------------------------------------------------------|
G----5-5---3-3/7-7---5-6-6-7-3-2---------5-10-10-7-------5-9-10-|
D--2~----3---------5-------------5-3-5/7-----------8-7-5--------|
A---------------------------------------------------------------|
E---------------------------------------------------------------|



Tap to rate this tab
# A B C D E F G H I J K L M N O P Q R S T U V W X Y Z