Song name
# A B C D E F G H I J K L M N O P Q R S T U V W X Y Z

Calle Kristiansson - Walking In Memphis tab

Capo on 6th fret

    C        D        G        Em         C           D        G        Em
E|--------X--------X--------X-------|--X-----------X--------X--------X--------|
B|-----3--X--3--3--X--3--3--X--3--3-|--X--3-----3--X--3--3--X--3--3--X--3--3--|
G|-----0--X--2--2--X--0--0--X--0--0-|--X--0-----0--X--2--2--X--0--0--X--0--0--|
D|-----2--X--0--0--X--0--0--X--2--2-|--X--2-----2--X--0--0--X--0--0--X--2--2--|
A|--3-----X--0-----X--------X--2----|--X-----3-----X--0-----X--------X--2-----|
E|--------X--------X--3-----X-------|--X-----------X--------X--3-----X--------|

The X's means that you hit the palm of your right hand on the strings to mute them, 
a "clicking beat".

The Chords look like this:
 C   D   G   Em
-3- -3- -3- -3-|
-3- -3- -3- -3-|
-0- -2- -0- -0-|
-2- -0- -0- -2-|
-3- -0- -2- -2-|
-0- -0- -3- -0-|

Notice: Keep your ring- and little finger on the 3rd fret on the bottom to strings 
playing shows up troughout the song).

Have fun!
/Tensby
Tap to rate this tab
# A B C D E F G H I J K L M N O P Q R S T U V W X Y Z