Song name
# A B C D E F G H I J K L M N O P Q R S T U V W X Y Z

Callum Fennell - Wake Up tab

Tabbed by: Callum Fennell
E-mail: Cfennell_98@hotmail.co.uk
Callum Fenell- Wake up
Tuning:Standard
| /   slide up
| \   slide down
| h   hammer-on
| p   pull-off
| ~   vibrato
| +   harmonic
| x   Mute note
| b   Bend
| pb  Pre-bend
| br  Bend release
| pbr Pre-bend release
| brb Bend release bend


                          Emsaus2
e|-------------------------------3-------------------------------------------|
B|---0------------0----------------3-----------------------------------------|
G|------0-----------0----------------0---------------------------------------|
D|---------0-----------0-----0h2--------2------------------------------------|
A|0h3--------3--0h2------2---0h2---------------------------------------------|
E|---------------------------------------------------------------------------|
                                        G
e|--------------------------------------1-1-1-1-1--|
B|---0-----------------0----------------0-0-0-0-0--|
G|------0-----------------0-------------0-0-0-0-0--|
D|---------0-----------------0----------0-0-0-0-0--|
A|0h3----------3--0h2----------2--------2-2-2-2-2--|
E|---------------------------------0h3--3-3-3-3-3--| Repeat twice, then the singing 
comes in, then play for 3 times until you change to the chorus.
Chorus:Play open G For a couple of bars and then change.

e|3-3-3-3-3-3-3-3-\-12-12-12-12-12-12-12-12/
B|3-3-3-3-3-3-3-3-\-12-12-12-12-12-12-12-12/
G|4-4-4-4-4-4-4-4-\-13-13-13-13-13-13-13-13/
D|5-5-5-5-5-5-5-5-\-14-14-14-14-14-14-14-14/
A|5-5-5-5-5-5-5-5-\-14-14-14-14-14-14-14-14/
E|3-3-3-3-3-3-3-3-\-12-12-12-12-12-12-12-12/

e|------------------------------------------|
B|------------------------------------------|
G|5-5-5-5-5-5-5-5\-12-12-12-12-12-12-12-12--|
D|5-5-5-5-5-5-5-5\-12-12-12-12-12-12-12-12--|
A|3-3-3-3-3-3-3-3\-10-10-10-10-10-10-10-10--|
E|------------------------------------------| Repeat a couple of times for chorus, then 
you go back to the verse then you go back to the chorus.
                     * these chords Em2 and G are played in quavers so it's not four but 
it is  8 strums.
e|-------------------3-3-3-3---------------------3-3-3-3--|
B|-------------------3-3-3-3---------------------3-3-3-3--|
G|-5-5-5-5--4-4-4-4--0-0-0-0---5-5-5-5--4-4-4-4--4-4-4-4--|
D|-5-5-5-5--4-4-4-4--2-2-2-2---5-5-5-5--4-4-4-4--5-5-5-5--|
A|-3-3-3-3--2-2-2-2--2-2-2-2---3-3-3-3--2-2-2-2--5-5-5-5--|
E|-----------------------------------------------3-3-3-3--|
Play for a couple of times and end on G

Callum Fennell- Wake up
Tap to rate this tab
# A B C D E F G H I J K L M N O P Q R S T U V W X Y Z