Song name
# A B C D E F G H I J K L M N O P Q R S T U V W X Y Z

Calvin Russell - This Could Be The Day tab

Help us improve GuitareTab! Take a short survey!
This Could Be The Day
(C.Russell)

Riff 1, repeated throughout the song:

  Am	    Em		  F
E|------------------------------------------------|
B|----0-1----------0-1---------0-1-------0-1------|
G|2-2-2---2--0---0-----0-----2------2---2------0--|
D|-2-----2---2-2------2---3-3--3--3---3--3---3----|
A|0-----------------------------------------------|
E|----------0-------------1-----------------------|

Intro: Riff 1

Riff 1: Hey what time is it ? What time is it ?


Riff 2:
    C	      Em     Am	     G       F
E|---------------------------------------1---------1------|
B|--------1-------0------1--------------------------------|
G|------0-------0------2---------0-----2--2--2---2--2--2--|
D|----2-------0------2---------0-----3-----3----3----3----|
A|--3-------2------0---------2----------------------------|
E|-------------------------3--------1---------1-----------|


It's the time to live free
It's the time for us to be
It's the time for us to see

Riff 1:
What time it is

What day is it ? What day is it ?

Riff 2:
This could be the day
For you and me
This could be the day
For love to be
This could be the day

When we (Riff 1) see
What day it is
When we see what day it is ...


Solo:

  Am          Em        F
E|----------------------------------|
B|-------010-0-----0-----1--01-0-10-|
G|-2-- 2-----0------21-2--2---------|
D|---2-------2---------3--3---3-3---|  (2x)
A|-0---------2----------------------|
E|-----------0--0------1------------|

  Am          G        F
E|-0-0-0-0------3-3---------------------|
B|-1-1-1-1---3-3-----1------10----------|
G|-2-2-2-2---0-------2----2---21--------|   Then Riff 1.....
D|-2-2-2-2---0-------3--3---------------|
A|-0-0-0-0------------------------------|
E|-----------3-------0------------------|
Related for This Could Be The Day tab