Song name
# A B C D E F G H I J K L M N O P Q R S T U V W X Y Z

Cambion - Jester tab

Cambion – Jester

Tuning: A,F#,B,E,G#,D
Drop B with the low B string down one step.
The palm mutes aren’t included but you should be able to figure them out from the track.
Please message me if you find any fault in the tab!
http://www.youtube.com/watch?v=cyQbbnN-bq0




Intro riff: Rhythm

D |-----------------------------------------------------------------------|
G#|-----------------------------------------------------------------------|
E |-----------------------------------------------------------------------|
B |------------------------------------------------------------5----------|
F#|------1----------3/6\3-----------1----------3/6\3------------6---------|
A |0-0--0-3-00002-22------0-2-3-3--3-3-33335-55------3-5-8-8--8--88885-55-|

|------------------------------------|
|------------------------------------|
|------------------------------------|   
|5/8\5p0---------5---------5/8\5p0---|
|-------h6--------6---------------h6-|
|----------8-8--8--88885-55----------|

Intro riff: Lead
|--------------------------------------|
|--------------------------------------|
|h12p5h8h12/15\12p5h8------------------| 
|--------------------12p-5h8h15\12p5h8-|
|--------------------------------------|
|--------------------------------------|

Verse Riff
|-------------------------------------------------------------------------|
|-------------------------------------------------------------------------|
|-----------------------5-3-------------------------------5-3-------------|
|--------------------------653-------------------------------653----------|
|-----------------------------65--------------------------------65--------|
|00000----0-0-0-0000000---------0-0000000---0-0-0-0000000-----------------|

Verse harmony
|-------------------------------------------------------------------------|
|-------------------------------------------------------------------------|
|-----------------------8-7---------------------------------8-7-----------|
|--------------------------1086--------------------------------1086-------|
|------------------------------108---------------------------------108----|
|00000----0-0-0-0000000-----------0-0000000---0-0-0-0000000---------------|

Verse riff 2                       Harmony
|-----------------------------------||----------------------------------|
|-----------------------------------||----------------------------------|
|-----------------------------------||----------------------------------|
|-----------------------------------||----------------------------------|
|---5-5h6----3-3h5----5-5h6----6-6h8||---3-3h5----1-1h----3-3h5----5-5h6|
|0-0-0---00-0-0---03-3-3---38-8-8---||0-0-0---00-0-0--03-3-3---38-8-8---|


Chorus riff: Rhythm 
|-------------------------------------------------------------------------|
|-------------------------------------------------------------------------|
|-------------------------------------------------------------------------|
|6-6666-63-3333-35-5555-55-5555--6-6666-63-3333-35-5555-55-5555-----------|
|6-6666-63-3333-33-3333-33-3333--6-6666-63-3333-33-3333-33-3333-----------|
|8-8888-85-5555-50-0000-00-0000-08-8888-85-5555-50-0000-00-0000-----------|

Chorus riff: Lead
|-------------------------------------------------------------------------|
|---------9------------9------------9-------------------------------------|
|-----12----12-----12----12-----12----12---------8\7----------------------|
|10-10--10----10-10--10----10-10--10---------12-----8/repeat--------------|
|---------------------------------------10-10--10-------------------------|
|-------------------------------------------------------------------------|

Bridge riff lead
|-------------------------------------------------------------------------|
|-------------------------------------------------------------------------|
|----88887777----------------------------88887777-------------------------|
|------------101010106666666655555555------------101010106666666688888888-|
|-------------------------------------------------------------------------|
|000---------------------------------000----------------------------------|

Bridge riff rhythm
|-------------------------------------------------------------------------|
|-------------------------------------------------------------------------|
|-------------------------------------------------------------------------|
|-------------------------------------------------------------------------|
|-------------------------------------------------------------------------|
|000-000-000-000-8888888877777777-000-000-000-000-888888881010101010101010|
Tap to rate this tab
# A B C D E F G H I J K L M N O P Q R S T U V W X Y Z