Song name
# A B C D E F G H I J K L M N O P Q R S T U V W X Y Z

Camel - Echoes tab

                    Echoes - Camel

Tabbed by: sbtm
Email: sbtm@live.de

Tuning: standard

Here's a more accurate version of the intro. 
tabbed by ear so mistakes are possible but i think it fits very well.

Intro

e|-------------------------------------------------------|
B|--------------------8--6--------------------6h8-6------|
G|---7-------7--------------7-----8---7-5-8---------5----|
D|-------5-8----- 5-8------------------------------------|
A|-------------------------------------------------------|
E|-------------------------------------------------------|

e|-------------------------------------------------------|
B|--------------------8--6--------------------6h8-6------|
G|---7-------7--------------7-----8---7-5-8---------5----|
D|-------5-8----- 5-8------------------------------------|
A|-------------------------------------------------------|
E|-------------------------------------------------------|

e|-------------------------------------------------------|
B|-------------------------------------6h8---13-10h11-10-|
G|-------5---5-10-8-10-7----------5h7h8------------------|
D|-8-7-8---8-------------8-7-5h7h8-----------------------|
A|-------------------------------------------------------|
E|-------------------------------------------------------|

e|-------------------------------------------------------|
B|--------------------8--6-------6-8-11-10h11h10-8~------|
G|---7-------7--------------7--8-------------------------|
D|-------5-8----- 5-8------------------------------------|
A|-------------------------------------------------------|
E|-------------------------------------------------------|


************************************

| /   slide up
| \   slide down
| h   hammer-on
| p   pull-off
| ~   vibrato
| +   harmonic
| x   Mute note
| b   Bend
| pb  Pre-bend
| br  Bend release
| pbr Pre-bend release
| brb Bend release bend

************************************
Tap to rate this tab
 
# A B C D E F G H I J K L M N O P Q R S T U V W X Y Z