Song name
# A B C D E F G H I J K L M N O P Q R S T U V W X Y Z

Cameo - Word Up tab

Main riff
E|-----------------------|
B|-----------------------|
G|-----------------------|
D|-4-4-2-2-0-0-2-2-4-4-4-|
A|-4-4-2-2-0-0-2-2-4-4-4-|
D|-4-4-2-2-0-0-2-2-4-4-4-|

verse guitar as well as main riff
E|-----------|
B|-----------|
G|-----------|
D|-4--4--7-4-|
A|---4-4-----|
D|-----------|

Chorus clean guitar
E|-----------------------------------------|
B|-----------------------------------------|
G|-4-4-4-4-4-3--2-2-2-2-2-1----------------|
D|-4-4-4-4-4-4--0-0-0-0-0-2--0-0-2-2-4-4-4-|
A|------------------------2--0-0-2-2-4-4-4-|
D|---------------------------0-0-2-2-4-4-4-|

interlude riff
E|-------------|
B|-------------|
G|-------------|
D|-4-4-4-9-7-4-|
A|-4-4-4-9-7-4-|
D|-4-4-4-9-7-4-|
Tap to rate this tab
# A B C D E F G H I J K L M N O P Q R S T U V W X Y Z