Song name
# A B C D E F G H I J K L M N O P Q R S T U V W X Y Z

Camila - Mientes tab

mientes

La cancion se basa en esto ojala les sirva :)   desde CAM de Mexicali

intro
|-----4---------------4------------4-------------------|
|-1-2---1-2-------1-2---1-2----1-2---1-2---------------|
|-----------3---------------3------------3-------------|
|------------------------------------------------------|
|------------------------------------------------------|
|------------------------------------------------------|

Coro

|----------------------------------------------------|
|----------------------------------------------------|
|---6----3-------------------------------------------|
|---6----3---4----6----------------------------------|
|---4----1---4----6----------------------------------|
|------------2----4----------------------------------|
Tap to rate this tab
 
# A B C D E F G H I J K L M N O P Q R S T U V W X Y Z