Song name
# A B C D E F G H I J K L M N O P Q R S T U V W X Y Z

Camp Kill Yourself - Inhuman Creation Station tab

Email:socksandspoons@hotmail.com
From the upcoming album.  Also heard on the CKY3 video 
Tab by John Houx (this is not my tab i only added a few things, this is an awesome song)
Webpage: http://ckytabs.cjb.net
Tuning: 1 Step Down (Low to High: D G C F A D) 

Verse Riff 4x 

------------------------------ 
------------------------------ 
------------------------------ 
-------7---------------------- 
-7--10------------------------ 
-0------10p7----0-0-0---0-0-0- 

Interlude Riff 1x 

------------------------------ 
------------------------------ 
------------------------------ 
----4-h5p4\2p0---/9--7-------- 
/5-------------2------10p9h10- 
------------------------------ 

Verse Riff 6x (2x then 4x with lyrics) 

Driving in at work behind 
Speed up the assembly line 
Don't force units together 
Follow the instruction sign 

Interlude Riff 1x 

This isn't happening a fourth time 

Verse Riff 6x (2x then 4x with lyrics) 

Work the parts responsibly 
Place them biologically 
Release the incomplete 
Bury the unfaithful fleet 

Interlude Riff 1x 

This isn't happening a 

Verse Riff 1x 

Fifth time 

Interlude Riff 1x 

This blood is flowing thru a 

Short Verse Riff 1x 

---------------------- 
---------------------- 
---------------------- 
-------7-------------- 
-7--10----------7-7-7- 
-0------10p7h10-0-0-0- 

Warped mind 

Prechorus Riff I 8x 

------------------------- 
------------------------- 
--------11/12------------ 
-7h9/12------------------ 
------------------------- 
--------------0-0--0-0-0- 

Prechorus Riff II 1x 

-------------------------------------- 
-------------------------------------- 
-----7h11----7h11--------------------- 
-7h9-----7h9-------------------------- 
-------------------------------------- 
-------------------------------------- 

Chorus 

 C                               E 
----------------------------------------------------------------- 
----------------------------------------------------------------- 
----------------------------------------------------------------- 
----------------------------------------------------------------- 
-3-3-3-3-3-3-3-3-3-3-3-3-3-3-3-3-7-7-7-7-7-7-7-7-7-7-7-7-7-7-7-7- 
---------------------------------0-0-0-0-0-0-0-0-0-0-0-0-0-0-0-0- 

See what's inside all the things you will find 
Can you see yourself doing that? 

 C                               E 
----------------------------------------------------------------- 
----------------------------------------------------------------- 
----------------------------------------------------------------- 
---------------------------------------------------------------7- 
-3-3-3-3-3-3-3-3-3-3-3-3-3-3-3-3-7-7-7-7-7-7-7-7-7-7-7---5---5--- 
---------------------------------0-0-0-0-0-0-0-0-0-0-0-3--------- 

When you're out on the move seeking something to prove 
Can you see yourself doing that? 

(not sure about this, oh well) 

 C                               E 
----------------------------------------------------------------- 
----------------------------------------------------------------- 
----------------------------------------------------------------- 
----------------------------------------------------------------- 
---------------------------------7-7-7-7-7-7-7-7-7-7-7-7-7-7-7-7- 
-8-8-8-8-8-8-8-8-8-8-7-5-3-5-7-3-0-0-0-0-0-0-0-0-0-0-0-0-0-0-0-0- 

You were in their design 
Just thrown into a mind 
And the world becomes our path 

 C                               E 
----------------------------------------------------------- 
----------------------------------------------------------- 
----------------------------------------------------------- 
----------------------------------------------------------- 
---------------------------------7-7-7-7-7-7-7-7-7-7-7---5- 
-8-8-8-8-8-8-8-8-8-8-7-5-3-5-7-3-0-0-0-0-0-0-0-0-0-0-0-3--- 

How the subtle divide 
Manufacturer's bride 
In the wake of aftermath 

Prechorus Riff I 4x 

Prechorus Riff II 1x 

Verse Riff 4x 

Compatible reality 
Forming separate entities 
Dead heads and holy water 
We install the wants and needs 

Interlude Riff 1x 

Work with the team to make the deadline 

Verse Riff 6x (2x then 4x with lyrics) 

Modern man cannot survive 
Drowning in formaldehyde 
Inhuman creation station 
That's where we control your lives 

Interlude Riff 1x 

And it's been happening since the 

Verse Riff 1x 

Dawn of time 

Interlude Riff 1x 

This blood's still flowing through a 

Short Verse Riff 1x 

Warped mind 

Prechorus Riff I 8x 

Prechorus Riff II 1x 

Chorus 

See what's inside all the things you will find 
Can you see yourself doing that? 

When you're out on the move seeking something to prove 
Can you see yourself doing that? 

You were in their design 
Just thrown into a mind 
And the world becomes our path 

How the subtle divide 
Manufacturer's bride 
In the wake of aftermath 

Outro 2x (Begin fade after first time through) 

Guitar 1 

 E                               G 
----------------------------------------------------------------- 
----------------------------------------------------------------- 
----------------------------------------------------------------- 
---------------------------------------------------------------7- 
-7-7-7-7-7-7-7-7-7-7-7-7-7-7-7-7-5-5-5-5-5-5-5-5-5-5-5---5---5--- 
-0-0-0-0-0-0-0-0-0-0-0-0-0-0-0-0-3-3-3-3-3-3-3-3-3-3-3-3--------- 

Guitar 2 

 E                               G 
----------------------------------------------------------------- 
----------------------------------------------------------------- 
----------------------------------------------------------------- 
----------------------------------------------------------------- 
-12----10---710-12----10----7-10-12---10-7-\5/-7----------------- 
----------------------------------------------------------------- 
  
  

Guitar 1 

 E                               G 
----------------------------------------------------------------- 
----------------------------------------------------------------- 
----------------------------------------------------------------- 
---------------------------------------------------------------7- 
-7-7-7-7-7-7-7-7-7-7-7-7-7-7-7-7-5-5-5-5-5-5-5-5-5-5-5---5---5--- 
-0-0-0-0-0-0-0-0-0-0-0-0-0-0-0-0-3-3-3-3-3-3-3-3-3-3-3-3--------- 

Guitar 2 

 E                               G 
----------------------------------------------------------------- 
----------------------------------------------------------------- 
----------------------------------------------------------------- 
----------------------------------------------------------------- 
-12----10---710-12-14-10----7-10-12---10-7-\5/-7----------------- 
-----------------------------------------------------------------

thanks to the guy on mxtabs that posted this!
Tap to rate this tab
# A B C D E F G H I J K L M N O P Q R S T U V W X Y Z