Song name
# A B C D E F G H I J K L M N O P Q R S T U V W X Y Z

Camp Kill Yourself - Shippensburg tab

----------------------------------------------------------------------------
			           Shippensburg - CKY
----------------------------------------------------------------------------
Tabbed by: EvilJared123
Email: jellyman01@comcast.net

Tuning:standard

e|---------------------------------------------------------------------------|
B|---------------------------------------------------------------------------|
G|-----------------2-0-------------------------------------------------------|
D|--0-0-2-3------------------------------------------------------------------|
A|-----------1-1-------------------------------------------------------------|
E|------------------------3-3------------------------------------------------|

e|---------------------------------------------------------------------------|
B|---------------------------------------------------------------------------|
G|---------------------------------------------------------------------------|
D|----7-7---5-5---7-7---5-5---7-7---5-5---7-7---5-5--------------------------|
A|----5-5---3-3---5-5---3-3---5-5---3-3---5-5---3-3--------------------------|
E|---------------------------------------------------------------------------|

thats all i have
Tap to rate this tab
# A B C D E F G H I J K L M N O P Q R S T U V W X Y Z