Song name
# A B C D E F G H I J K L M N O P Q R S T U V W X Y Z

Cancerslug - Circles tab

----------------------------------------------------------------------------
                             CIRCLES - Cancerslug
----------------------------------------------------------------------------

Tabbed by: olslysatan
E-mail: ridehard_diefree@hotmail.com

Tuning: open C

let ring throughout intro
e|-------------------------------------------------------------------------|
C|-------------------------------------------------------------------------|
G|---------------------------2-22-232--------------------------------------|
C|----------2-2-222----------0-00-010--------------------------------------|
G|-0-0-000--0-0-000--3-3-333---------3-------------------------------------|
C|-0-0-000-----------3-3-333---------3-------------------------------------|
                                         play 5 times then
distortion kicks in..
e|--------------------------------------------------------------------------|
C|--------------------------------------------------------------------------|
G|--------------------------------------------------------------------------|
C|--------------------------------------------------------------------------|
G|-3-3-333--2-2-222--0-0-000-0-0-000----------------------------------------|
C|-3-3-333--2-2-222--0-0-000-0-0-000----------------------------------------|
             palm mute   xxx     xxx

e|--------------------------------------------------------------------------|
C|--------------------------------------------------------------------------|
G|--------------------------------------------------------------------------|
C|----------2-2-222---------------------------------------------------------|
G|-3-3-333--0-0-000--0-0-000-0-0-000----------------------------------------|
C|-3-3-333-----------0-0-000-0-0-000----------------------------------------|
             palm mute   xxx     xxx


back to intro. And thats how the whole song goes

easy enough that if you can do that you can figure out the order

Also I know that he plays a little riff in the chorus instead of just palm muting the 
open notes, but you can throw anything you want in there that sounds good.
Tap to rate this tab
 
# A B C D E F G H I J K L M N O P Q R S T U V W X Y Z