Song name
# A B C D E F G H I J K L M N O P Q R S T U V W X Y Z

Candlelight Red - Demons tab

Artist: Candlelight Red
Song: Demons
Tabber: sonicbluezx3@yahoo.com
Tuning: Drop A#

* = Palm Mute
x = palm mute open string

Intro: (Play twice)

C------Play three times--------|----Play once--------------|
G------------------------------|---------------------------|
Eb---3-3---3-3-----------------|--3-3---3-3----------------|
A#---3-3-0-3-3-0--0--0-1-0-----|--3-3-0-3-3-0---1--3--1----|
F----1-1-0-1-1-0--0--0-1-0-----|--1-1-0-1-1-0---1--3--1----|
A#-------0-----0--0--0-1-0-----|------0-----0---1--3--1----|
         *     *  *  * * *            *     *   

Verse 1: (Play 4 times)
C-----------------------------|
G-----------------------------|
Eb--7---5---8----7---10---5---|
A#----------------------------|
F---5---3---6----5---8----3---|
A#----------------------------|

Pre Chorus: (Play once)
C--------------------------------------------------|
G--------------------------------------------------|
Eb--3--------11-12----3---------11-----------------|
A#--3----0------------3----0----------3--------1---|
F---1----0---9--10----1----0----9-----3--------1---|
A#-------0-----------------0----------3--------1---|

Chorus: (Play twice)
C------Play three times--------|----Play once--------------|
G------------------------------|---------------------------|
Eb---3-3---3-3-----------------|--3-3---3-3----------------|
A#---3-3-0-3-3-0--0--0-1-0-----|--3-3-0-3-3-0---1--3--1----|
F----1-1-0-1-1-0--0--0-1-0-----|--1-1-0-1-1-0---1--3--1----|
A#-------0-----0--0--0-1-0-----|------0-----0---1--3--1----|
         *     *  *  * * *            *     *   

Verse 2: (Play 4 times)
C-----------------------------|
G-----------------------------|
Eb--7---5---8----7---10---5---|
A#----------------------------|
F---5---3---6----5---8----3---|
A#----------------------------|

Pre Chorus: (Play once)
C--------------------------------------------------|
G--------------------------------------------------|
Eb--3--------11-12----3---------11-----------------|
A#--3----0------------3----0----------3--------1---|
F---1----0---9--10----1----0----9-----3--------1---|
A#-------0-----------------0----------3--------1---|

Chorus: (Play twice)
C------Play three times--------|----Play once--------------|
G------------------------------|---------------------------|
Eb---3-3---3-3-----------------|--3-3---3-3----------------|
A#---3-3-0-3-3-0--0--0-1-0-----|--3-3-0-3-3-0---1--3--1----|
F----1-1-0-1-1-0--0--0-1-0-----|--1-1-0-1-1-0---1--3--1----|
A#-------0-----0--0--0-1-0-----|------0-----0---1--3--1----|
         *     *  *  * * *            *     *   

Breakdown: 
C--Play once-------------------|-----Play Twice---------------------------------|
G------------------------------|------------------------------------------------|
Eb-----------------------------|------------------------------------------------|
A#-----------------------------|------------------------------------------------|
F--6-5-3-5---------------------|------6-5-----6-5-x-x---------------------------|
A#---------0---0-0--0---0-0--0-|--0-0-----0-0---------0-0--0---0-0--0---0-0--0--|

Breakdown (continued)
C---End on-------------|
G----------------------|
Eb---------------------|
A#---------------------|
F-----6-5-----6-5------|
A#-0-0----0-0-----X-X--|


Solo (Rhythm part only, I don't tab solos sorry!)
C----Play three times---------|
G-----------------------------|
Eb---3-3----3-3---------------|
A#---3-3-0--3-3-0----0----0---|
F----1-1-0--1-1-0----0----0---|
A#-------0------0----0----0---|

Solo (Continued)
C-------------------------------------------------------------------------------------------------|
G-------------------------------------------------------------------------------------------------|
Eb--3-3----3-3------------------------------------------------------------------------------------|
A#--3-3-0--3-3-0---1--3--1----0--0---0--0---0--0---0--1---0-0--0---0-0--0---0-0--0--0-0-1--3--1---|
F---1-1-0--1-1-0---1--3--1----0--0---0--0---0--0---0--1---0-0--0---0-0--0---0-0--0--0-0-1--3--1---|
A#------0------0---1--3--1----0--0---0--0---0--0---0--1---0-0--0---0-0--0---0-0--0--0-0-1--3--1---|

Pre Chorus: (Play once)
C--------------------------------------------------|
G--------------------------------------------------|
Eb--3--------11-12----3---------11-----------------|
A#--3----0------------3----0----------3--------1---|
F---1----0---9--10----1----0----9-----3--------1---|
A#-------0-----------------0----------3--------1---|

Chorus: (Play twice)
C------Play three times--------|----Play once--------------|
G------------------------------|---------------------------|
Eb---3-3---3-3-----------------|--3-3---3-3----------------|
A#---3-3-0-3-3-0--0--0-1-0-----|--3-3-0-3-3-0---1--3--1----|
F----1-1-0-1-1-0--0--0-1-0-----|--1-1-0-1-1-0---1--3--1----|
A#-------0-----0--0--0-1-0-----|------0-----0---1--3--1----|
         *     *  *  * * *            *     *   

Outro:
C----------------------------------------------------------------------------------------||
G----------------------------------------------------------------------------------------||
Eb---------------------------------------------------------------------------------------||
A#---------------------------------------------------------------------------1--3--1-----||
F---6-5-3-5--------------------------6-5-----6-5-----------------------------1--3--1-----||
A#----------0--0-0--0---0-0--0---0-0-----0-0-----0--0-0--0---0-0--0--0-0--0--1--3--1-----||
Tap to rate this tab
# A B C D E F G H I J K L M N O P Q R S T U V W X Y Z