Song name
# A B C D E F G H I J K L M N O P Q R S T U V W X Y Z

Cantrell Jerry - She Was My Girl tab

-------------------------------------------------------------------------------
			     She Was My Girl - Jerry Cantrell
-------------------------------------------------------------------------------
Tabbed by: Almostdabomb :)
Email:

Tuning:Drop D For Version A and Standard For Version B

e|-----------------------------------------------------------------------------|
B|-----------------------------------------------------------------------------|
G|-----------------------------------------------------------------------------|
D|-2-2--3-3-3--2-2--3-3-3-3-3--------------------------------------------------|
A|-2-2--3-3-3--2-2--3-3-3-3-3--------------------------------------------------|
E|-2-2--3-3-3--2-2--3-3-3-3-3--------------------------------------------------|

e|-----------------------------------------------------------------------------|
B|-----------------------------------------------------------------------------|
G|-----------------------------------------------------------------------------|
D|-4-4--5-5-5--4-4--5-5-5-5-5--------------------------------------------------|
A|-2-2--3-3-3--2-2--3-3-3-3-3--------------------------------------------------|
E|-----------------------------------------------------------------------------|

     It also sounds pretty good if you add an open sixth string in between note changes.

*The entire song goes like this exept for the solo...
Tap to rate this tab
# A B C D E F G H I J K L M N O P Q R S T U V W X Y Z