Song name
# A B C D E F G H I J K L M N O P Q R S T U V W X Y Z

Cantrell Jerry - Leave Me Alone tab

this is one of my favorite solo written by white lion lead guitarist vibrato
in there song leave me alone. it's a great classic rock songs 'cause it 
has a unique sounds and has lots of crazy licks. im showing you the tabs 
i made on this solo and it looks interesting cause you'll find alot of 
fun licks and tappings on it. believe me guys after youve master this solo 
im 100% sure ur skill will improve to advance level. my tabs are 100% accurate..
well we have our own technics but i think mine are closer or maybe better
than the original.

/ -slide forward       . -palm mute   ~ -vibrato  [] -scream
\ -slide backward      h -hammer      p -pulloff   T -tap

E|----------14-14-14-14-14-14-14-14-14--------|-------------------------7-|
B|-15b-15~~-14-14-14-14-14-14-14-14-14--------|-----------------6h7p6p4---|
G|-15b-15~~----------------------------15~~16\|-x-x-6h7p6p4-6p4-----------|
D|--------------------------------------------|---------------------------|
A|--------------------------------------------|---------------------------|
e|--------------------------------------------|---------------------------|

                                            .  . .        . .   .  .  .  .
E|------------4----------------------|-------------------------------------|
B|-7p6p4--------4-7p4----------------|-----16-------[16]-------16-15-14-13-|
G|-------[6b]---------6-[6b]p4-------|-/13----13-13------13-13-------------|
D|-----------------------------6-----|-------------------------------------|
A|-------------------------------[2~]|-------------------------------------|
e|-----------------------------------|-------------------------------------|

        .  .  .  .  .  .           .  .
E|---------------------------20\--20-20-20h21p20p18-20\14h16h18p16p14-
B|-----19-------19-------19b------------------------------------------
G|-/17----17-17----17-17----------------------------------------------
D|--------------------------------------------------------------------
A|--------------------------------------------------------------------
e|--------------------------------------------------------------------

                                            v                     T
E|-13h14h16p14p13-----------------------16-----|-----9h11h13p11p9-13-9h11p9-
B|----------------16p13-14p13-------16b----b16-|----------------------------
G|----------------------------15p13------------|-/13------------------------
D|---------------------------------------------|----------------------------
A|---------------------------------------------|----------------------------
e|---------------------------------------------|----------------------------

   T             T        T           T       T         T
E|-11-8h9h11p9p8-11-8h9p8-9-6h8h9p8p6-9-6h8p6-----------------------------
B|--------------------------------------------9-8h9p8p6-9-6h8p6-----------
G|--------------------------------------------------------------8bp6\-----
D|------------------------------------------------------------------------
A|------------------------------------------------------------------------
e|------------------------------------------------------------------------

             T       T           T       T         T       T         T
E|--------------------------------------------------------------------------
B|--------------------------------------------------------------------------
G|-5h6h8p6p5-8-5h6p5-6-3h5h6p5p3-6-3h5p3------------------------------------
D|---------------------------------------6-4h6p4p3-6-3h4p3------------------
A|---------------------------------------------------------6-4h6p4p3-6-3h4p3
e|--------------------------------------------------------------------------

   T         T
E|-------------------------------|
B|-------------------------------|
G|-------------------------------|
D|-------------------------------|
A|-------------------------------|
e|-6-4h6p4p3-6-3h4p3-1h2(scream)-|

   T  T          T  T          T  T          T  T
E|------------------------------------------------------------------
B|-16-16-14p11p9-16-16-14p11p9-16-16-14p11p9-16-16-14p11p9-------------
G|-------------------------------------------------------------------
D|------------------------------------------------------------------
A|-------------------------------------------------------------------
e|------------------------------------------------------------------

   T  T          T  T          T  T          T  T
E|-16-16-14p11p9-16-16-14p11p9-16-16-14p11p9-16-16-14p11p9-20\----------
B|------------------------------------------------------------------
G|-------------------------------------------------------------------
D|------------------------------------------------------------------
A|-------------------------------------------------------------------
e|------------------------------------------------------------------


E|-/18p16p14\13-16p14p13----------16p14p13----------|---------------------
B|-----------------------16p14p13----------16p14p13-|-14p13----------------
G|--------------------------------------------------|-------15p13-------
D|--------------------------------------------------|----------------
A|--------------------------------------------------|-----------------
e|--------------------------------------------------|----------------


E|-----------------------------------|--------------------------|-----
B|-----------------------------------|--------------------------|-----
G|-13p10-11p10----------[11~~]scream-|-----8p7~-----8p7~\4~-----|------
D|-------------13-11-10--------------|-6h8------6h8---------6p4-|---------
A|-----------------------------------|--------------------------|------
e|-----------------------------------|--------------------------|--



E|-----------------------|-------------------------------------------
B|-----------------------|-------------------------14--------------
G|-----8p7~-----x-x-7-8~-|-------11----11-13-11-13----13-13-11~----
D|-6h8------6h8----------|-11h13----13-----------------------------
A|-----------------------|--------------------------------------
e|-----------------------|---------------------------------------


E|------------------------16~~~--
B|------16-------16-------------
G|--/13----13-13----13-13---------
D|-------------------------------
A|-------------------------------
e|--------------------------------



for comments & suggestion email me at night3y3@yahoo.com
Tap to rate this tab
# A B C D E F G H I J K L M N O P Q R S T U V W X Y Z