Song name
# A B C D E F G H I J K L M N O P Q R S T U V W X Y Z

Capitaine Revolte - Le Grand Roque tab

INTRO

Dm A     X4


COUPLET (semblant de rythmes de ska)
Dm	                     A
Que chacun prenne sa place sur le grand chiquier
Dm			       A
Les blancs commencent  jouer, rien na vraiment chang
Dm                           A
Ils se croient suprieurs et ils en sont trs fiers
Dm                            A
Mme dans le dictionnaire le noir cest labsence de lumire


REFRAIN
Dm                    A
La guerre est un jeu, un immense jeu dchecs
Dm
Les prsidents samusent  jouer
A
 ce petit jeu de socit
Dm		     A
La terre est un jeu, un immense jeu dchecs
     D5
Dans chaque pays il y a une arme
     A5
Prte  tout faire sauter


BRIDGE
D5 A5 X2


COUPLET 2
Dm                                A
Les pions sont les premiers appts pour lennemi affam
Dm                           A
Ils avancent firement pour dminer les champs de bl
Dm                               A
Les fous sont prts  tout pour mourir dans lhonneur
Dm                               A
Et chaque tour peut sattendre  vivre dans lhorreur


REFRAIN


BRIDGE 2 (le rythmes est difficile  crire sur tabs)
-------------------------------------------------------|
-------------------------------------------------------|
7-7-7-7-7-------------------------------------7--------|
7-7-7-7---7-----------------------------------7--------| X2
5-5-5-5-----8-7-5-7-8--7-5-7-8--7-5-7-8-7-5---5--------|
--------------------------------------------8----------|


BRIDGE CONTINUE
----------------(               P.M-----------------------|                     )
----------------------------------------------------------|
----------------------------------------------------------|
-7-7-7b(9)7-------7-5-------------------------------------|
----------------------8-7-5-8-7-5-7---5-------------------|
------------------------------------8---8-7-5-7--8--------|

SOLO
-13-12----------------------------------------------------------------------|
-------15-13-15-13----------------------------------------------------------|
-------------------15-14^^----12h14p12--12h14p12--------12------------------|
--------------------------------------15-----------15-14------15-14-12/11---|
----------------------------------------------------------------------------|
----------------------------------------------------------------------------|

--------------------------------------------13-13-12-------------------------|
----------10-8-------------------8-8-11-11-----------15-14----15^^^^^--------|
---------------10-9^^^^---/10-10---------------------------------------------|
-----------------------------------------------------------------------------|
---7-8-----------------------------------------------------------------------|
/10----10--------------------------------------------------------------------|


COUPLET 3
Dm                                A
La reine sur sa couleur nous montre quelle na pas peur
Dm                            A
Elle russit tous ses coups, quel pouvoir sducteur
Dm                     A
Les rois sont protgs de tous bords, tous cts
Dm                     A
Par une arme de pantins si bien manipuls

REFRAIN X2 (la deuxime fois jou avec D5 et A5 au complet)


Question, commentaire, lapointe_dom@hotmail.com
Tap to rate this tab
# A B C D E F G H I J K L M N O P Q R S T U V W X Y Z