Song name
# A B C D E F G H I J K L M N O P Q R S T U V W X Y Z

Capital Cities - Safe And Sound tab

Safe and Sound
Capital Cities
Capital Cities EP
Tabbed by Saibe
ascootw (at) yahoo.com

Tuning: Standard


Thanks to feelthemusic for submitting the first tab. I simply adjusted the chords and 
added the correct tabs to the solo's.



Intro:
F-C-Am-G x2


F                  C
I could lift you up
        Am
I could show you what you want to see
     G
and take you where you want to be

F                   C
You could be my luck
      Am
Even if the sky is falling down
   G
I know that we'll be safe and sound



F

C
     We're Safe and Sound
Am

G



e|--12-----------------12---------------------------------------------|
B|--------12-13-15--------------12-13-15------------------------------|
G|-----14-----------------12-12---------------------------------------|
D|--------------------------------------------------------------------|
A|--------------------------------------------------------------------|
E|--------------------------------------------------------------------|

e|--12-----------------12-------15-13-12------------------------------|
B|--------12-13-15----------------------------------------------------|
G|-----14-----------------12-12---------------------------------------|
D|--------------------------------------------------------------------|
A|--------------------------------------------------------------------|
E|--------------------------------------------------------------------|


F                  C
I could fill your cup
            Am
You know my river won't evaporate
      G
This world we still appreciate

F                  C
You could be my luck
          Am
Even in a hurricane of frowns
   G
I know that we'll be safe and sound



F
Safe and Sound (Hold your ground)
C
     We're Safe and Sound              x2
Am
Safe and Sound (Safe and Sound)
G



e|--12-----------------12---------------------------------------------|
B|--------12-13-15--------------12-13-15------------------------------|
G|-----14-----------------12-12---------------------------------------|
D|--------------------------------------------------------------------|
A|--------------------------------------------------------------------|
E|--------------------------------------------------------------------|
                                                                          x2
e|--12-----------------12-------15-13-12------------------------------|
B|--------12-13-15----------------------------------------------------|
G|-----14-----------------12-12---------------------------------------|
D|--------------------------------------------------------------------|
A|--------------------------------------------------------------------|
E|--------------------------------------------------------------------|


F                   C
I could show you love
     Am
In a tidal wave of mystery
        G
You'll still be standing next to me

F                   C
You could be my luck
        Am
Even if we're six feet underground

I know that we'll be safe and sound



e|--12-10h12-12---x6-----12----12-12-12-12----------------------------|
B|--------------------------------------------------------------------|
G|--------------------------------------------------------------------|
D|--------------------------------------------------------------------|  x2
A|--------------------------------------------------------------------|
E|--------------------------------------------------------------------|

F
Safe and Sound (Hold your ground)
C
                                  x2
Am
Safe and Sound (Safe and Sound)
G


F                 C
I could lift you up
        Am
I could show you what you want to see
     G
and take you where you want to be

F                 C
You could be my luck
      Am
Even if the sky is falling down
   G
I know that we'll be safe and sound

F                 C
I could lift you up
        Am
I could show you what you want to see
     G
and take you where you want to be

F                 C
You could be my luck
      Am
Even if the sky is falling down
   G
I know that we'll be safe and sound


F

C
     We're Safe and Sound              x2
Am

G
     We're Safe and Sound

e|--12-----------------12---------------------------------------------|
B|--------12-13-15--------------12-13-15------------------------------|
G|-----14-----------------12-12---------------------------------------|
D|--------------------------------------------------------------------|
A|--------------------------------------------------------------------|
E|--------------------------------------------------------------------|
                                                                          x2
e|--12-----------------12-------15-13-12------------------------------|
B|--------12-13-15----------------------------------------------------|
G|-----14-----------------12-12---------------------------------------|
D|--------------------------------------------------------------------|
A|--------------------------------------------------------------------|
E|--------------------------------------------------------------------|


F
Safe and Sound (Hold your ground)
C
     We're Safe and Sound              x2
Am
Safe and Sound (Safe and Sound)
G
     We're Safe and Sound


e|--12-----------------12---------------------------------------------|
B|--------12-13-15--------------12-13-15------------------------------|
G|-----14-----------------12-12---------------------------------------|
D|--------------------------------------------------------------------|
A|--------------------------------------------------------------------|
E|--------------------------------------------------------------------|
                                                                          x2
e|--12-----------------12-------15-13-12------------------------------|
B|--------12-13-15----------------------------------------------------|
G|-----14-----------------12-12---------------------------------------|
D|--------------------------------------------------------------------|
A|--------------------------------------------------------------------|
E|--------------------------------------------------------------------|
Tap to rate this tab
 
# A B C D E F G H I J K L M N O P Q R S T U V W X Y Z