Song name
# A B C D E F G H I J K L M N O P Q R S T U V W X Y Z

Carissas Wierd - One Night Stand tab

-------------------------------------------------------------------------------
                             One Night Stand - Carissa's Wierd
-------------------------------------------------------------------------------
Tabbed by: ivadell
E-mail: sadstyle36@hotmail.com

Tuning: standard, 1/2 step down

Part 1
e|-------------------------------------------|
B|-------3-----------3---------2---------3---|
G|---0h2---2-----0h2---2-----2---2-----4---4-|
D|-0-----------------------------------------|
A|-------------2-----------------------------|
E|-------------------------2---------3-------|


Part 2 (suddenly a wonderful evening...)
e|------------------------------------------------------------------------------|
B|-----3--------3---------3---------2----------3---------3---------2--------2---|
G|---2---2----2---2-----2---2-----2---2------2---2-----2---2-----2---2----2---2-|
D|-0---------------------------------------0------------------------------------|
A|----------2-------------------0--------------------2---------0--------0-------|
E|--------------------3---------------------------------------------------------|

------
Part 1
------

------
Part2
------

Final : D, Bm, G, A
Tap to rate this tab
 
# A B C D E F G H I J K L M N O P Q R S T U V W X Y Z