Song name
# A B C D E F G H I J K L M N O P Q R S T U V W X Y Z

Carla Bruni - Le Ciel Dans Una Chambre tab

Tuning : D tuning  ( D G C F Bb D )

  INTRO:

   Bb
   -----------0---------|
   --------1------1-----|
   -----0-------------0-|     x2
   ---------------------|
   --3------------------|
   ---------------------|


   VERSE:

   Bb                   Gm               Eb                Bb     F/A
   ----------0-------------------------------------1--------------------|
   -------1-----1----------------0--------------1-----1-----------------|
   ----0------------0---------1-----1--------2-----------2-----0------0-|
   ------------------------2-----------2--3------------------2------0---|
   -3-------------------0----------------------------------1------2-----|
   ---------------------------------------------------------------------|


   on the last verse instead of playing immediately the last passage
   (Bb - F/A) its:

    Eb/Bb                   Bb       F/A
   -------------------------------------------|
   -------------1-----------------------------|
   ---------2-------2-------------0--------0--|
   -----3---------------3------2--------0-----|
   --3----------------------3--------2--------|
   -------------------------------------------|

its a shame that ther isnt any tab of this song (this is one of the
most beatiful italian love songs the original song was of Gino Paoli
but i like the version of Carla Bruni cause she sing in french and
italian )
Tap to rate this tab
# A B C D E F G H I J K L M N O P Q R S T U V W X Y Z