Song name
# A B C D E F G H I J K L M N O P Q R S T U V W X Y Z

Carlos Bertonatti - The Little Things tab

-----------------------------------------------------------------------------
The Little Things     Carlos Bertonatti
-----------------------------------------------------------------------------
Tabbed by: noco1531
Tuning: Standard (E A D G B e)

This is a fairly easy song to play, just keep in mind that the intro is an
arpeggiation of the chords listed. I think the original song is played with
2 guitars but if you're playing by yourself this is a fair approximation.

Intro:
   E			     G#			     A
e|-----------0--------------------------4-----------------------------------|
B|--------------0--------------------------4----------------7--5------------|
G|-----------------1--------------------------5------------------6----------|
D|------2-------------------------6----------------------7------------------|
A|---2-------------------------6-----------------------7--------------------|
E|-0------------------------4------------------------5----------------------|

   B		     E			    G#	               A
e|----------------------------0---------------------4-----------------------|
B|---------9--7-----------------0---------------------4--------------7--5---|
G|--------------------------------1---------------------5------------------6|
D|-----9-----------------2----------------------6------------------7--------|
A|---9-----------------2----------------------6------------------7----------|
E|-7-----------------0----------------------4------------------5------------|
   
   B
e|--------------------------------------------------------------------------|
B|---------9----------------------------------------------------------------|
G|--------------------------------------------------------------------------|
D|-----9--------------------------------------------------------------------|
A|---9----------------------------------------------------------------------|
E|-7------------------------------------------------------------------------|


Verse: (Repeats Throughout)
   E		       G#		    A		       B
e|-0---0---0-----------4---4---4------------5---5---5----------7---7---7----|
B|-0---0---0-----------4---4---4------------5---5---5----------7---7---7----|
G|-1---1---1-----------5---5---5------------6---6---6----------8---8---7----|
D|-2------------2/4----6--------------------7------------------9------------|
A|-2-------------------6------------6/7-----7------------7/9---9------------|
E|-0-------------------4--------------------5------------------7------------|

**If you listen to the song you can get an idea of the strumming pattern


Solo: (Play x2)
e|-12--12--12-12-12-12---9--9--9-9-9-9--------------------------------------|
B|---------------------------------------10--10--10-10-10-10---12--12-------|
G|--------------------------------------------------------------------------|
D|--------------------------------------------------------------------------|
A|--------------------------------------------------------------------------|
E|--------------------------------------------------------------------------|


************************************

| /   slide up
| \   slide down
| h   hammer-on
| p   pull-off
| ~   vibrato
| +   harmonic
| x   Mute note
| b   Bend
| pb  Pre-bend
| br  Bend release
| pbr Pre-bend release
| brb Bend release bend

************************************
http://myplay.com/artists/carlos-bertonatti/bio
Tap to rate this tab
 
# A B C D E F G H I J K L M N O P Q R S T U V W X Y Z