Song name
# A B C D E F G H I J K L M N O P Q R S T U V W X Y Z

Carlos Jean - Lead The Way tab

Tab by PaulWowx

Carlos Jean - Lead the Way

Intro (x2):

E|---2---2---2---1---1---1---1------2---2---2---4---4---4---4---|
B|-4---4---4---4---4---4---4---4------4---4---4---4---4---4---4-|
G|--------------------------------------------------------------|
D|--------------------------------------------------------------|
A|--------------------------------------------------------------|
E|--------------------------------------------------------------|


Chorus:

E|-------------------------------------------------------------------|
B|-------------------------------------------------------------------|
G|-------------------------------------------------------------------|
D|-8-8-8-8-8-8-8-8-8-----------------4-4-4-4-4-4-4-4-----------------|
A|-6-6-6-6-6-6-6-6-6-4-4-4-4-4-4-4-4-2-2-2-2-2-2-2-2-6-6-6-6-6-6-6-6-|
E|-------------------2-2-2-2-2-2-2-2-----------------4-4-4-4-4-4-4-4-|

carlosjean.tv/
Tap to rate this tab
 
# A B C D E F G H I J K L M N O P Q R S T U V W X Y Z