Song name
# A B C D E F G H I J K L M N O P Q R S T U V W X Y Z

Carlos Puebla - Hasta Siempre tab

-------------------------------------------------------------------------------
			 Hasta Siempre - Carlos Puebla
-------------------------------------------------------------------------------
Tabbed by: EinderiheN
Email: isimsizyolcu at yahoo dot com dot tr

Tuning: Standard

This is a fairly easy song. 4/4 time. The seventh on C# is optional, play the way 
that sounds better to you.

Intro (also played after every chorus, except the end)
                                   F#m                              
e|--------------------------------|5-4---4-5-4---4-5-4---4-5-4---5-|
B|--------------------------------|----7-------7-------7-------7---|
G|--------------------------------|--------------------------------|
D|--------------------------------|--------------------------------|
A|--------------------4---6---8---|--------------------------------|
E|--------------------------------|--------------------------------|
  E                                D                               
e|4-2---2-4-2---2-4-2---2-4-2---4-|2---0-------0---2---1---4---2---|
B|----5-------5-------5-------5---|--------3-----------------------|
G|--------------------------------|--------------------------------|
D|--------------------------------|--------------------------------|
A|--------------------------------|--------------------------------|
E|--------------------------------|--------------------------------|
  C#7
e|1-------------------------------|
B|------------2-------------------|
G|--------------------------------|
D|--------------------------------|
A|--------------------4---6---8---|
E|--------------------------------|



F#m    C#7
Aprendimos a quererte
F#m      C#7
Desde la histórica altura
F#m            C#7
Donde el sol de tu bravura
F#m      C#7
Le puso cerco a la muerte.

Chorus:

F#m           C#7
Aquí se queda la clara,
F#m              C#7
La entrañable transparencia,
F#m           E
De tu querida presencia
D               C#7
Comandante Che Guevara.

F#m        C#7
Tu mano gloriosa y fuerte
F#m        C#7  
Sobre la historia dispara
F#m          C#7
Cuando todo Santa Clara
F#m       C#7
Se despierta para verte.

Chorus

F#m     C#7  
Vienes quemando la brisa
F#m    C#7
Con soles de primavera
F#m       C#7
Para plantar la bandera
F#m        C#7
Con la luz de tu sonrisa. 

Chorus

F#m      C#7
Tu amor revolucionario
F#m     C#7
Te conduce a nueva empresa
F#m            C#7
Donde esperan la firmeza,
F#m      C#7
De tu brazo libertario. 

Chorus

F#m     C#7
Seguiremos adelante
F#m       C#7
Como junto a ti seguimos
F#m         C#7
Y con Fidel te decimos:
F#m         C#7
!Hasta siempre, Comandante! 

Chorus and end.

-------------------------------------------------------------------------------

No official website, but see: http://en.wikipedia.org/wiki/Carlos_Puebla
Tap to rate this tab
 
# A B C D E F G H I J K L M N O P Q R S T U V W X Y Z