Guitaretab - guitar tabs
Song name
# A B C D E F G H I J K L M N O P Q R S T U V W X Y Z

Carlos Santana - Evil Ways tab

                                               Evil Ways (Solo)
                                                  Santana

Guitar Solo (03:00):
|-------------------------------------------------------|
|-11---11--11--11--11--11----11--11p10p8-10----8--------|
|-------------------------------------------10---9-10-7-|
|-------------------------------------------------------|
|-------------------------------------------------------|
|-------------------------------------------------------|

|----------8-8----8-8------8-8------------/10---10---10------|
|-8h10-11------11-------11------8-11--------------------11-8-|
|------------------------------------------------------------|
|------------------------------------------------------------|
|------------------------------------------------------------|
|------------------------------------------------------------|

|-/10--12h13--13-13-13--12-12--10-10--------------------|
|-------------------------------------13-13--11-11------|
|---------------------------------------------------12--|
|-------------------------------------------------------|
|-------------------------------------------------------|
|-------------------------------------------------------|

|-------------------------------------------3---------------------|
|----10-11----10--------------------------3---6p3-----------------|
|-12-------12----10-12-9-10----------5b7-----------5b7rp5p3-5p3---|
|---------------------------12----------------------------------5-|
|-----------------------------------------------------------------|
|-----------------------------------------------------------------|

|----------------------------------------------------------------------|
|-10h11-8------8--11--8------8--11--8------8--11--8------8--8-11p10p8--|
|----------10------------10------------10------------10----------------|
|----------------------------------------------------------------------|
|----------------------------------------------------------------------|
|----------------------------------------------------------------------|
[ Tab from: http://www.guitaretab.com/c/carlos-santana/118683.html ]
|----------------------------------------------------15--------15-|
|-/13---13p11--13p11-13p11-13p11-13p11-13p11----/15-----15h17-----|
|-----------------------------------------------------------------|
|-----------------------------------------------------------------|
|-----------------------------------------------------------------|
|-----------------------------------------------------------------|
|-----------------------------------------------------------------|

|-18p17p15-17----15--------------|
|-------------18----18p17p15-----|
|--------------------------------|
|--------------------------------|
|--------------------------------|
|--------------------------------|

|-18p17p15--18p17p15--18p17p15-18p17p15-18p17p15-18p17p15-18p17p15-18p17p15-18p17p15-18p17p15-|
|---------------------------------------------------------------------------------------------|
|---------------------------------------------------------------------------------------------|
|---------------------------------------------------------------------------------------------|
|---------------------------------------------------------------------------------------------|
|---------------------------------------------------------------------------------------------|

|-18b20---20r18-----20b22---20b22--22-22---18-20--15-18-----15--------------|
|--------------------------------------------------------18-----15-18----15-|
|---------------------------------------------------------------------17----|
|---------------------------------------------------------------------------|
|---------------------------------------------------------------------------|
|---------------------------------------------------------------------------|

|-------15-15----------15--------15-------------15----15-----------|
|-15h18-------15-18b20-----18b20----------15h18----15-----15-------|
|------------------------------------------------------------17-15-|
|------------------------------------------------------------------|
|------------------------------------------------------------------|
|------------------------------------------------------------------|

Fade Away
|-------15--------15--------15-15--------15--------15--------15--------15-15--------15-|
|-18b20-----18b20-----18b20--------18b20-----18b20-----18b20-----18b20--------18b20----|
|--------------------------------------------------------------------------------------|
|--------------------------------------------------------------------------------------|
|--------------------------------------------------------------------------------------|
|--------------------------------------------------------------------------------------|

Related for Evil Ways tab