Guitaretab - guitar tabs
Song name
# A B C D E F G H I J K L M N O P Q R S T U V W X Y Z

Carlos Santana - Let The Children Play tab

Song Title: Let The Chlidren Play
Artist/Band: Santana
Album: Festival, 1976.

Tab by JC Rea(jcrp_21@hotmail.com)

Symbols:

h=hammer-on
/=slide-up
~=left hand vibrato

INTRO:
e|-5/7~~~-----7h8--5h7-------5--|-8/10--8-7h8------10p8--7-8--------|
B|---------10----------8-5h8----|-------------10-------------10-10--|
G|------------------------------|-----------------------------------|
D|------------------------------|-----------------------------------|
A|------------------------------|-----------------------------------|
E|------------------------------|-----------------------------------|

e|-5/7~~~-----7/8--7---------8--|-8/10--8-7h8------10p8--7-8--------|
B|---------10--------8---5h8----|-------------10-------------10-10--|
G|------------------------------|-----------------------------------|
D|------------------------------|-----------------------------------|
A|------------------------------|-----------------------------------|
E|------------------------------|-----------------------------------|

e|-------------------------|
B|-------------------------|
G|-------------------------|
D|-10--7-------------------|
A|-------10--7--5--3--0----|
E|----------------------3--|


SOLO:
e|-----------------------------|
B|------------5-------5--------|
G|--------5-7---5-7-7---5-7-7--|
D|-5h7--7----------------------|
A|-----------------------------|
E|-----------------------------|
[ Tab from: http://www.guitaretab.com/c/carlos-santana/122424.html ]
e|-----5-5---------------------|
B|---5-----5---------5---------|
G|-7---------5--7-7----5--7-7--|
D|-----------------------------|
A|-----------------------------|
E|-----------------------------|

e|------------------|
B|------------------|
G|------------------|
D|-7--5-------------|
A|------7--5--3-----|
E|---------------3--|


e|------------------------------|
B|------------5-------5---------|
G|--------5-7---5-7-7---5--7-7--|
D|-5h7--7-----------------------|
A|------------------------------|
E|------------------------------|

e|-----5-5-------------------|
B|---5-----5-------5---------|
G|-7---------5-7-7---5--7-7--|
D|---------------------------|
A|---------------------------|
E|---------------------------|

e|-------------|
B|-------------|
G|-------------|
D|----------7--|
A|-0--5--7-----|
E|-------------|



"...Let the children have their way,
 Let the children play,
 Let the children play..."
e|------------------------------|
B|------------5-------5---------|
G|--------5-7---5-7-7---5--7-7--|
D|-5h7--7-----------------------|
A|------------------------------|
E|------------------------------|

"...Let the children have their way,
 Let the children play,
 Let the children play..."
e|------------------------------|
B|------------5-------5---------|
G|--------5-7---5-7-7---5--7-7--|
D|-5h7--7-----------------------|
A|------------------------------|
E|------------------------------|.  .  .  END


Comments: jcrp_21@hotmail.com
Related for Let The Children Play tab
Let The Children Play chords by Carlos Santana