Song name
# A B C D E F G H I J K L M N O P Q R S T U V W X Y Z

Carlos Santana - Into The Night Acoustic tab

Arranged by Maxim



Guitar I (E A D G B E)

 Intro
  Q=120
 4/4
  Gtr I
  H      E E E E   +E  Q.    E E E E   +E  E Q.     E E E   +E  E Q   E E E E
|----------------|-------------------|--------------3-5---|--------------------|
|--------1-0-----|-----------1-3h5p3-|-(3)-1-3----------3-|-(3)-1-3---1-0------|
|-----2--2---2-0-|-(0)----0----------|--------------------|-----2---------2-0--|
|---2------2-----|-----2-------------|-----0----0---0---0-|--0------0-0--------|
|-0----------0---|--3--------3s5-----|-------2----2---2---|--------------------|
|----------------|-------------------|--3-----------------|--------------------|
  E E Q  E E Q      E  E  Q  E Q.       E  E E  E E E E E    E  Q   E H


  H      E  E E E   +E  H      Q   E   +Q    H.            Q   Q   E E  E E
|-------------3-3-|-(3)-5------5-----|-------------------|------------------|
|--------3--5-----|----------------3-|-(3)---1-----------|-3---3---1-0------|
|-----2-----------|-------0----------|-------------------|---2----------2-0-|
|---2-----------2-|-(2)------2-------|-------0---------0-|-0-----0---0------|
|-0------0--------|--3-----------3---|-----2----2----2---|------------------|
|-----------------|------------------|--3---------3------|------------------|
  E E Q  Q.     E    Q    Q  Q   Q      E  E E  E Q  E E   E Q   Q   Q.


   Verse
    E E E Q   Q   S S   E E E H       S S
||--------------------|-------------------|
||o-1-0---0-----------|-1-0---0-----------|
||------2-----0-----2-|-----2-----------2-|
||----2---2-------2---|---2---2-------2---|
||o-0-------0---0-----|-3-------3---3-----|
||--------------------|-----------3-------|
    E Q   E Q   Q       E Q   E E E Q


  E E E Q   E E E   E E E  E +Q.     S S
|-----------------|-----------------------||
|-1-0---0---------|-3-1-0--1-(1)---------o||
|-----2-----0-0-0-|---2----------2-----2--||
|-----0-----------|-0---0----------0-2----||
|---2-----2---2---|----------------------o||
|-3---------3-----|-----------------------||
  E E Q   E E Q     E E Q.       E Q


  E E E Q   Q   S S   E E E H       S S   E E E Q   E E E   E E E E +E  E E E
|-------------------|-------------------|-----------------|-------------------|
|-1-0---0-----------|-1-0---0-----------|-1-0---0---------|-3-1-0-1-(1)-------|
|-----2-----0-----2-|-----2---0-------2-|-----2-----0-0-0-|---2---------2-2-2-|
|---2-----2-----2---|---2---2---2---2---|-----0-----------|-0---0----0--------|
|-0---0-------0-----|-3---3-------3-----|---2---2---2-----|-------------------|
|-------------------|-------------------|-3-------3---3---|-------------------|
  E E Q   Q   Q       E E E E E E Q       E E E E E E Q     E E Q    H


 Chorus
  Q   E Q   Q   E   +E  Q   H      S S   E Q   Q   E E E   +E  Q  E +E  E E E
|-----0-----------|-----0--------------|-0---------------|-----0---------------|
|-------3---1---3-|-(3)----------------|---3---3---3-1-3-|-(3)-----------------|
|-2-------2-------|-------0-2------2-2-|-----------------|--------2-(2)-2-2-2--|
|---2-2-----------|-----2--------2-----|---------0-------|--0------------------|
|-0-----------0---|--3--------3--------|-----2-------2---|---------------------|
|-----------------|--------------------|-3---------------|---------------------|
  E E Q   Q   Q      E  E Q   Q  Q       Q   Q   Q   Q      W


  Q   E Q   Q   E   +E  Q   H       S S   Q.     Q   Q   E   +Q    E H    +E
|-----0-----------|-----0---------------|-3------0---------|-------0-----------|
|-------3---1---3-|-(3)-----------------|------------3---3-|-(3)-----3---------|
|-2-------2-------|---------2-------2-2-|--------0---------|-----2---2----(2)--|
|-------2-------2-|-------------2-------|------0-----------|--0----0-0----(0)--|
|-0-----------0---|--3--------3---3-----|----2-----2-------|-------------------|
|---0-------------|-------3-------------|-3------------3---|-------------------|
  E Q   E Q   E E    Q    Q   E E Q       E  E E E Q   Q      E  E E H    +E


   Verse
    E E E Q   Q   S S   E E E H       S S
||--------------------|-------------------|
||o-1-0---0-----------|-1-0---0-----------|
||------2-----0-----2-|-----2-----------2-|
||----2---2-------2---|---2---2-------2---|
||o-0-------0---0-----|-3-------3---------|
||--------------------|-----------3-------|
    E Q   E Q   Q       E Q   E E Q.


  E E E Q   E E E   E E E  E +Q.     S S
|-----------------|-----------------------||
|-1-0---0---------|-3-1-0--1-(1)---------o||
|-----2-----0-0-0-|---2----------2-----2--||
|-----0-----------|-0---0----------0-2----||
|---2-----2---2---|----------------------o||
|-3---------3-----|-----------------------||
  E E Q   E E Q     E E Q.       E Q


  E E E Q   Q   S S   E E E H       S S   E E E Q   E E E   E E E E +E  E E E
|-------------------|-------------------|-----------------|-------------------|
|-1-0---0-----------|-1-0---0-----------|-1-0---0---------|-3-1-0-1-(1)-------|
|-----2-----0-----2-|-----2---0-------2-|-----2-----0-0-0-|---2---------2-2-2-|
|---2-----2-----2---|---2---2---2---2---|-----0-----------|-0---0----0--------|
|-0---0-------0-----|-3---3-------3-----|---2---2---2-----|-------------------|
|-------------------|-------------------|-3-------3---3---|-------------------|
  E E Q   Q   Q       E E E E E E Q       E E E E E E Q     E E Q    H


 Chorus
  Q   E Q   Q   E   +E  Q   H      S S   E Q   Q   E E E   +E  Q  E +E  E E E
|-----0-----------|-----0--------------|-0---------------|-----0---------------|
|-------3---1---3-|-(3)----------------|---3---3---3-1-3-|-(3)-----------------|
|-2-------2-------|-------0-2------2-2-|-----------------|--------2-(2)-2-2-2--|
|---2-2-----------|-----2--------2-----|---------0-------|--0------------------|
|-0-----------0---|--3--------3--------|-----2-------2---|---------------------|
|-----------------|--------------------|-3---------------|---------------------|
  E E Q   Q   Q      E  E Q   Q  Q       Q   Q   Q   Q      W


  Q   E Q   Q   E   +E  Q   H       S S   Q.     Q   Q   E   +Q    E H    +E
|-----0-----------|-----0---------------|-3------0---------|-------0-----------|
|-------3---1---3-|-(3)-----------------|------------3---3-|-(3)-----3---------|
|-2-------2-------|---------2-------2-2-|--------0---------|-----2---2----(2)--|
|-------2-------2-|-------------2-------|------0-----------|--0----0-0----(0)--|
|-0-----------0---|--3--------3---3-----|----2-----2-------|-------------------|
|---0-------------|-------3-------------|-3------------3---|-------------------|
  E Q   E Q   E E    Q    Q   E E Q       E  E E E Q   Q      E  E E H    +E


  Q=100
  Q.     Q   Q   E   +Q    E H    +E
|-3------0---------|-------0----------*|
|------------3---3-|-(3)-----3--------*|
|------------------|-----2---2----(2)-*|
|------0-------0---|--0----0-0----(0)-*|
|----2---2---2---2-|------------------*|
|-3--------3-------|------------------*|
  E  E E E E E E E    E  E E H    +E


Duration Legend
---------------
W - whole; H - half; Q - quarter; E - 8th; S - 16th; T - 32nd; X - 64th; a - acciaccatura
+ - note tied to previous; . - note dotted; .. - note double dotted
Uncapitalized letters represent notes that are staccato (1/2 duration)
Irregular groupings are notated above the duration line
Duration letters will always appear directly above the note/fret number it represents the
duration for.  Duration letters with no fret number below them represent rests.  Multi-
bar rests are notated in the form Wxn, where n is the number of bars to rest for.  Low
melody durations appear below the staff

Tablature Legend
----------------
 h   - hammer-on
 p   - pull-off
 b   - bend
 pb  - pre-bend
 r   - bend release (if no number after the r, then release immediately)
 /\  - slide into or out of (from/to "nowhere")
 s   - legato slide
 S   - shift slide
  - natural harmonic
[n]  - artificial harmonic
n(n) - tapped harmonic
 ~   - vibrato
 tr  - trill
 T   - tap
 TP  - trem. picking
 PM  - palm muting
\n/  - tremolo bar dip; n = amount to dip
 \n  - tremolo bar down
 n/  - tremolo bar up
/n\  - tremolo bar inverted dip
 =   - hold bend; also acts as connecting device for hammers/pulls
 <>  - volume swell (louder/softer)
 x   - on rhythm slash represents muted slash
 o   - on rhythm slash represents single note slash

Misc Legend
-----------
 |  - bar
||  - double bar
||o - repeat start
o|| - repeat end
*|  - double bar (ending)
 :  - bar (freetime)
 $  - Segno
 &  - Coda
Tempo markers -  = BPM(8/16=s8/s16), where s8 = swing 8ths, s16 = swing 16ths
Tap to rate this tab
 
# A B C D E F G H I J K L M N O P Q R S T U V W X Y Z