Song name
# A B C D E F G H I J K L M N O P Q R S T U V W X Y Z

Carlos Santana - Manana tab

song name:Maņana
album:Ceremony Remixes and Rarities 2003
tabbed by: Ravindra
Email:ravindrachangoer@msn.com

This is really a great song played by Santana. It's a song with great feeling and 
expression I really love the song.
The intro part on the acoustic guitar is just like Europe but on an Am.

Intro (acoustic)
e|--5-7-8-7-7p5--------|-------7-7p5--------|
B|-5------------8-5-5h6|-5-6-8-------8------|
G|---------------------|---------------7-7/9|
D|---------------------|--------------------|
A|---------------------|--------------------|
E|---------------------|--------------------|

e|-------5----------|-------------------|
B|-5-6-8---8-6-5----|---5-6-8-6-5-------|
G|---------------5h7|-7-----------7-7/9-|
D|------------------|-------------------|
A|------------------|-------------------|
E|------------------|-------------------|

Sometimes I wish I knew your name
At times I want to say hello
But you seem so far away
To let my feelings show
And though I don't know what to say
I feel that someday soon one day
Love will place you by my side
And it shall be our guide

(If someone could help me with the chords I would really appreciate that)

And then Manana (play along)0:58 (electric)

e|---------------------------------------------------------|
B|--8--6-6--8-6-5----8-6-3/5-6-5-------3/6-5--------5-3/5--|
G|----------------7--------------7-5-5-------77-5-7--------|
D|---------------------------------------------------------|
A|---------------------------------------------------------|
E|---------------------------------------------------------|

e|---------8-----------------------|
B|-8-6-5-8---8-6p5h6---------------|
G|---------------------------------|
D|---------------------------------|
A|---------------------------------|
E|---------------------------------|

oh manana 1:17 (play along)
e|-8------------------8----------------------------------------------|
B|---8-6-6-8-6-6/8-8----8-3/5---6-5------3/6-5----------3/5-5--------|
G|----------------------------------7-5---------7-7-5-7--------------|
D|-------------------------------------------------------------------|
A|-------------------------------------------------------------------|
E|-------------------------------------------------------------------|

e|---5-8-5-5-----5-8^--8-5--|
B|-8-----------8------------|
G|--------------------------|
D|--------------------------|
A|--------------------------|
E|--------------------------|


When I have you by my side
You will always be my pride
e|----8h10-8------------------------------------------|
B|----------------------------------------------------|
G|----------------------------------------------------|
D|----------------------------------------------------|
A|----------------------------------------------------|
E|----------------------------------------------------|


Love so simple yet so sweet
e|-------------------------------------------------|
B|-------------8-----------------------------------|
G|--7b9r7-9-10---10-9-7-7/9\7/9--------------------|
D|-------------------------------------------------|
A|-------------------------------------------------|
E|-------------------------------------------------|


I do think you're all I need
e|----5--8-55-5-8p5----5--8^------------------|
B|--8----------------8------------------------|
G|--------------------------------------------|
D|--------------------------------------------|
A|--------------------------------------------|
E|--------------------------------------------|


So I thought I'd let you know
e|-----10--12-13-12-10----10-12-10-12----------------------------------|
B|--13-----------------13----------------------------------------------|
G|---------------------------------------------------------------------|
D|---------------------------------------------------------------------|
A|---------------------------------------------------------------------|
E|---------------------------------------------------------------------|


That my heart forever grows
e|---------------------------------------------------|
B|---------------------------------------------------|
G|--------------12--14-12-14-------------------------|
D|--------12-14--------------------------------------|
A|--12/14--------------------------------------------|
E|---------------------------------------------------|

Closer to your warm embrace
e|-----------1312-1312-1312-1312-13/15--12-12h13p12-----------------------|
B|-----12-15----------------------------------------15-13b15-1312--1312---|
G|--14--------------------------------------------------------------------|
D|------------------------------------------------------------------------|
A|------------------------------------------------------------------------|
E|------------------------------------------------------------------------|

e|------------------------------------------|
B|----------------------13------------------|
G|--14-12-14~-14~-12-14----14-14------------|
D|------------------------------------------|
A|------------------------------------------|
E|------------------------------------------|

and then manana (play along)
e|---------------------------------------------------------------|
B|-8-6-6-8-6-5---8-6-3/5-65-------3/6-5---------5-3/5------------|
G|-------------7-------------7-55-------77-5-7-------------------|
D|---------------------------------------------------------------|
A|---------------------------------------------------------------|
E|---------------------------------------------------------------|

e|-----------8--1010-8h10-5--------------|
B|-------5-8-----------------------------|
G|---5-7---------------------------------|
D|-7-------------------------------------|
A|---------------------------------------|
E|---------------------------------------|

e|-8------------------------------------------|
B|--8-66-8-6-6/8-8--8-6--3/5--65--------------|
G|--------------------------------7-5---------|
D|--------------------------------------------|
A|--------------------------------------------|
E|--------------------------------------------|

e|-----------------------5-8-55-5~--5-8^-12----|
B|-3/6-5--------3/5-5--8-----------8-----------|
G|-------77-5-7--------------------------------|
D|---------------------------------------------|
A|---------------------------------------------|
E|---------------------------------------------|

Solo 02:53
e|----12--15-1313-1212-------------12------------|
B|-15-------------------1515-13-15-----15-13-15--|
G|-----------------------------------------------|
D|-----------------------------------------------|
A|-----------------------------------------------|
E|-----------------------------------------------|

e|----------12-12-----------------12-15p12h15p12h15p12h15p12h15p12h15p12h15-|
B|----12-15-------15-13h15--13-15-------------------------------------------|
G|-14-----------------------------------------------------------------------|
D|--------------------------------------------------------------------------|
A|--------------------------------------------------------------------------|
E|--------------------------------------------------------------------------|

e|-15^-15^^-15^-15^-15^-15br-15-12h15p12----15-12-------------------------|
B|---------------------------------------15------13-------------13--------|
G|--------------------------------------------------14-14~-12-14---1414~--|
D|------------------------------------------------------------------------|
A|------------------------------------------------------------------------|
E|------------------------------------------------------------------------|

e|---17-19-19h20-19-17---------------------------19-19-19p17-----------------|
B|-17------------------20-17h18p17-18---17-18-20-------------20--------------|
G|---------------------------------------------------------------19/21\19/21-|
D|---------------------------------------------------------------------------|
A|---------------------------------------------------------------------------|
E|---------------------------------------------------------------------------|

e|-17----------------------17-----------------------------------------17---|
B|-17-------------17-18-20----20-18-17----------------17--------------17---|
G|----/19-17-17------------------------19/21-19-17-19----19-17-19-19^------|
D|-------------------------------------------------------------------------|
A|-------------------------------------------------------------------------|
E|-------------------------------------------------------------------------|

e|----17----17----1717-1212121212121212121212---------------------|
B|----17----17----1717-1313131313131313131313--13-13-15-----------|
G|-19^---19^---19^--------------------------------------14-14~----|
D|----------------------------------------------------------------|
A|----------------------------------------------------------------|
E|----------------------------------------------------------------|

And then manana (play along)
e|-8------------------------------------------------------------------|
B|---8-66-8-6-3/5----8-6-3/5-6-5-------3/6-5-----------3/5-5----------|
G|----------------7--------------5/7-5-------5/7-7-5-7----------------|
D|--------------------------------------------------------------------|
A|--------------------------------------------------------------------|
E|--------------------------------------------------------------------|

e|-------5~-3/55~-3/55~-55-77-88-10--------------|
B|---5-8-----------------------------------------|
G|-7---------------------------------------------|
D|-----------------------------------------------|
A|-----------------------------------------------|
E|-----------------------------------------------|

Oh manana
e|-12-15p12h15p12h15p12h15p12h15p12h15-15^-15^-15^-15^-15-12-12-15-15-12---|
B|-------------------------------------------------------------------------|
G|-------------------------------------------------------------------------|
D|-------------------------------------------------------------------------|
A|-------------------------------------------------------------------------|
E|-------------------------------------------------------------------------|


e|-------12------------------------------------|
B|-13-15----13-13-15---------------------------|
G|---------------------------------------------|
D|---------------------------------------------|
A|---------------------------------------------|
E|---------------------------------------------|

e|-1515-1313-1212------------------------------------------------------|
B|----------------1515-1313-12-13-15-13-12-----------------------------|
G|-----------------------------------------14-14-12---------------12---|
D|--------------------------------------------------14-12---12-14------|
A|--------------------------------------------------------14-----------|
E|---------------------------------------------------------------------|

e|---------------------------------12-12-13-15-17-19----|
B|-------12----12-13-12-13-15-13-15---------------------|
G|-12-14----14------------------------------------------|
D|------------------------------------------------------|
A|------------------------------------------------------|
E|------------------------------------------------------|

e|----17-20-22-20-19-20-22--20-19-20-17----------|
B|-20--------------------------------------------|
G|-----------------------------------------------|
D|-(Im not sure about this part)-----------------|
A|-----------------------------------------------|
E|-----------------------------------------------|

e|-17--1717-17--1717-17--1717-17--1717-----------------------------------|
B|-20^------20^------20^------20^------20-1717-20-17-20br-20-17-20-17----|
G|-----------------------------------------------------------------------|
D|-----------------------------------------------------------------------|
A|-----------------------------------------------------------------------|
E|-----------------------------------------------------------------------|

e|-----------------------------------------------------------------|
B|------------------------17-18-20-18-17-20-1817-1817--------------|
G|---------------------19-----------------------------19-17-19/21--|
D|-------17-17-19-17-----------------------------------------------|
A|-17/19-----------------------------------------------------------|
E|-----------------------------------------------------------------|

e|-----------------1717-17-17-17--17-17-17-17--17-------|
B|----------17-17-------20^---20^----20^---20^----------|
G|-19-17-19---------------------------------------------|
D|------------------------------------------------------|
A|------------------------------------------------------|
E|------------------------------------------------------|

   A5     B5     C5
e|-171717-191919-2020-17h20p17h20p17h20p17h20p17h20p17h20p17h20^/////-|
B|-171717-191919-2020-------------------------------------------------|
G|-141414-161616-1717-------------------------------------------------|
D|--------------------------------------------------------------------|
A|--------------------------------------------------------------------|
E|--------------------------------------------------------------------|

e|-20^-20^-20-20-17--------------------------------------------------|
B|------------------20-18-17-18-17----------------------17-17---20---|
G|---------------------------------19-17-19/21-19-17-19--------------|
D|-------------------------------------------------------------------|
A|-------------------------------------------------------------------|
E|-------------------------------------------------------------------|

e|-17-----------------------------------------------------------|
B|-17-20-18-17-20-18p17-20p18p17-20p18p17-20p18p17-171717171717-|
G|--------------------------------------------------------------|
D|--------------------------------------------------------------|
A|--------------------------------------------------------------|
E|--------------------------------------------------------------|


e|-17-17-17-17-17-17-17-17-17-----17-20^-20^-20^-20^-20-17-20-17---17--|
B|----20^---20^---20^---20^-----20-------------------------------20----|
G|---------------------------------------------------------------------|
D|---------------------------------------------------------------------|
A|---------------------------------------------------------------------|
E|---------------------------------------------------------------------|

e|-------------------------------------------------------------------|
B|-20-17-20^-20-17-20-17----------17----------17---------------------|
G|-----------------------19-17-19----19-17-19----19-17-19\-----------|
D|-------------------------------------------------------------------|
A|-------------------------------------------------------------------|
E|-------------------------------------------------------------------|

Means our love will always (play along)
e|--------------------------------------------------8----------|
B|-8-6-5--6-5-----3/6-5--------------3/5-5---8-6-5-8--6-8~-----|
G|------------7-5-------5/7-7-5-5/7----------------------------|
D|-------------------------------------------------------------|
A|-------------------------------------------------------------|
E|-------------------------------------------------------------|

Oh manana
e|-8-------------8----------------------5------|
B|--8-66-8-6-88----8-3/5-6-5---------5-8--8----|
G|---------------------------7-5-5--7-------7--|
D|---------------------------------------------|
A|---------------------------------------------|
E|---------------------------------------------|

e|----------12---------12----------12---------12-1212-12h15p12h15p12h15///-|
B|-10-12-13----10-12-13---10-12-13----10-12-13---1313----------------------|
G|-------------------------------------------------------------------------|
D|-------------------------------------------------------------------------|
A|-------------------------------------------------------------------------|
E|-------------------------------------------------------------------------|

e|-17///19-20-----17-20^-20^^^-20^^-20^-20^--20-17----17------------------|
B|-------------20----------------------------------20----20^-20-17-20-17--|
G|-------------(while bending also try to hit-----------------------------|
D|---------------the B string along with the e string)--------------------|
A|------------------------------------------------------------------------|
E|------------------------------------------------------------------------|

e|---------------------------------------------|
B|----------------17---------------------------|
G|-19-17----17-19----19-17-19-1717-------------|
D|-------19------------------------------------|
A|---------------------------------------------|
E|---------------------------------------------|

e|-------------------------5-5-8-5-5---5-8-5-5---5-8-5-5-(5)\3/5-|
B|-6-5----------------5-8-5-8--------8---------8-----------------|
G|-----7-7-5-7-7/9-9---------------------------------------------|
D|---------------------------------------------------------------|
A|---------------------------------------------------------------|
E|---------------------------------------------------------------|

e|-8--------------------------------------------------------------|
B|---8-6-6-8-6-3/5----8-6-3/5-6-5--------3/6-5-3/5-3/5----3/5-5---|
G|-----------------7--------------5/7-55---------------7-7--------|
D|----------------------------------------------------------------|
A|----------------------------------------------------------------|
E|----------------------------------------------------------------|

e|-------5------5-----5-----8-5-5~----------------|
B|-5-8-5----8-5---8-5---8-5-----------------------|
G|------------------------------------------------|
D|------------------------------------------------|
A|------------------------------------------------|
E|------------------------------------------------|


e|--5--7-7h8-7-7p5--------------------------------|
B|-5---------------8-5h6--------------------------|
G|------------------------------------------------|
D|------------------------------------------------|
A|------------------------------------------------|
E|------------------------------------------------|

So this is it, I hope that you'll like the tab please contact me for corrections, 
tips...............enjoy
Tap to rate this tab
 
# A B C D E F G H I J K L M N O P Q R S T U V W X Y Z