Carlos Whittaker - God Of Second Chances tab

God of Second Chances Intro

EADGBe

Guitar 1 - palm muted

e|----------------------------------------------|
B|----------------------------------------------|
G|------------10-10-------------------9-9-------|
D|10-10-10-10-------10-10-10-10-10-10-----10-10-|
A|----------------------------------------------|
E|----------------------------------------------|


e|--------------------------------------------|
B|--------------------------------------------|
G|------------9-9-------------------7-7-------|
D|10-10-10-10-----10-10-10-10-10-10-----10-10-|
A|--------------------------------------------|
E|--------------------------------------------|

e|----------------------------------------------|
B|----------------------------------------------|
G|------------10-10-------------------9-9-------|
D|10-10-10-10-------10-10-10-10-10-10-----10-10-|
A|----------------------------------------------|
E|----------------------------------------------|

e|--------------------------------|
B|--------------------------------|
G|--------7-7-------------7-7-----|
D|9-9-9-9-----9-9-9-9-9-9-----9-9-|
A|--------------------------------|
E|--------------------------------|

Verse


e|----------------------------------------------|
B|----------------------------------------------|
G|------------10-10-------------------9-9-------|
D|10-10-10-10-------10-10-10-10-10-10-----10-10-|
A|----------------------------------------------|
E|----------------------------------------------|


e|----------------------------------------|
B|----------------------------------------|
G|------------9-9---------------7-7-------|
D|10-10-10-10-----10-10-9-9-9-9------9-9--|
A|----------------------------------------|
E|----------------------------------------|

e|----------------------------------------------|
B|----------------------------------------------|
G|------------10-10-------------------9-9-------|
D|10-10-10-10-------10-10-10-10-10-10-----10-10-|
A|----------------------------------------------|
E|----------------------------------------------|

e|--------------------------------|
B|--------------------------------|
G|--------7-7-------------7-7-----|
D|9-9-9-9-----9-9-9-9-9-9-----9-9-|
A|--------------------------------|
E|--------------------------------|

Pre-Chorus:   Dm   Am   F

Chorus:   C  Am  G   F 

Bridge:  C    G  Am   F

This intro was tabbed out by David McFarlin. Chords Submitted by Phil Quagliariello.
Chords and lyrics for the entire song are available at Carlos Whittaker's official site, 
www.ragamuffinsoul.com
Tap to rate this tab
 
# A B C D E F G H I J K L M N O P Q R S T U V W X Y Z