Song name
# A B C D E F G H I J K L M N O P Q R S T U V W X Y Z

Carly Comando - Everyday tab

Everyday - Carly Comando                       
Tab by - myspace.com/vicious_78


E|----------------------------------|----------------------1-----------|
B|----1---1---1---1---1---1---1---1-|----1---1---1---1---1---1---1---0-|
G|--2---2---2---2---2---2---2---2---|--2---2---2---2---2---2---2---2---|
D|--2-------------------------------|--3-------------------------------|
A|----------------------------------|----------------------------------|
E|----------------------------------|----------------------------------|


   
--0-------0-------0-------0-------|--0-------0-------0-------0-------|
------1-------1-------1-------1---|------0-------0-------0-------0---|
----0---0---0---0---0---0---0---0-|----1---1---1---1---1---1---1---1-|
----------------------------------|----------------------------------|
--3-------------------------------|--2-------------------------------|
----------------------------------|----------------------------------|


   
----------------------------------|----------------------1-----------|
----1---1---1---1---1---1---1---1-|----1---1---1---1---1---1---1---0-|
--2---2---2---2---2---2---2---2---|--2---2---2---2---2---2---2---2---|
--2-------------------------------|--3-------------------------------|
--0-------------------------------|--3-------------------------------|
----------------------------------|----------------------------------|


    
--0-------0-------0-------0-------|--0-------0-------0-------0-------|
------1-------1-------1-------1---|------0-------0-------0-------0---|
----0---0---0---0---0---0---0---0-|----1---1---1---1---1---1---1---1-|
----------------------------------|----------------------------------|
--3-------3-------3-------3-------|--2-------2-------2-------2-------|
----------------------------------|----------------------------------|


 
||---1-------1-------1-------1-------|--0-------0-------0-------0-------|
||-------1-------1-------1-------1---|------1-------1-------1-------1---|
||*----2---2---2---2---2---2---2---2-|----0---0---0---0---0---0---0---0-|
||*------3-------3-------3-------3---|------2-------2-------2-------2---|
||-----------------------------------|--3-------3-------3-------3-------|
||---1-------1-------1-------1-------|----------------------------------|


                                    1x--------------------------------    
--0-------0-------0-------0-------|--0-------0-------0-------0--------||
------0-------0-------0-------0---|------1-------1-------1-------1----||
----1---1---1---1---1---1---1---1-|----2---2---2---2---2---2---2---2-*||
------2-------2-------2-------2---|------2-------2-------2-------2---*||
--2-------2-------2-------2-------|--0-------0-------0-------0--------||
----------------------------------|-----------------------------------||


    
----------------------------------|----------------------------------|
--1-------------------------1-----|--1-------------------------------|
----2---2---2---2---2---2---2---2-|------------------------------2---|
------2---2---2-------2-------2---|----3---3---3---3---3---3---3---3-|
--0---------------0-------0-------|------3---3---3-------3-------3---|
----------------------------------|--1---------------1-------1-------|


    
----------------------------------|----------------------------------|
----------------------------------|----------------------------------|
--0-------------------------0-----|--1---------------------------1---|
----2---2---2---2---2---2---2---2-|----2---2---2---2---2---2---2---2-|
--3---3---3---3---3---3---3---3---|--2---2---2---2-------2-------2---|
----------------------------------|------------------0-------0-------|


    
----------------------------------|----------------------------------|
----------------------------------|------------------1-----------1---|
--2-------------------------2-----|--2-----------------------2-------|
----2---2---2---2---2---2---2---2-|----3---3---3---3---3---3---3---3-|
--0---0---0---0---0---0---0---0---|------3---3---3-------3-------3---|
----------------------------------|--1---------------1-------1-------|


    
----------------------------------|--------------------------0-------|
------------------1---------------|------------------0-----------0---|
--0-----------------------0-------|--1-------1---------1---1---1---1-|
----2---2---2---2---2---2---2---2-|----2---2---2---2-----2-----------|
--3---3---3---3---3---3---3---3---|--2---2-------2-------------------|
----------------------------------|----------------------------------|


      
||---1-------1-------1-------1-------|--0-------0-------0-------0-------|
||-------1-------1-------1-------1---|------1-------1-------1-------1---|
||*----2---2---2---2---2---2---2---2-|----0---0---0---0---0---0---0---0-|
||*------3-------3-------3-------3---|------2-------2-------2-------2---|
||-----------------------------------|--3-------3-------3-------3-------|
||---1-------1-------1-------1-------|----------------------------------|


                                    1x-------------------------------
--0-------0-------0-------0-------|--0-------0-------0-------0--------||
------0-------0-------0-------0---|------1-------1-------1-------1----||
----1---1---1---1---1---1---1---1-|----2---2---2---2---2---2---2---2-*||
------2-------2-------2-------2---|------2-------2-------2-------2---*||
--2-------2-------2-------2-------|--0-------0-------0-------0--------||
----------------------------------|-----------------------------------||


   2x-------------------------------------------------------------------
||---0-------0-------0-------0-------|--0-------0-------0-------0--------||
||-------1-------1-------1-------1---|------1-------1-------1-------1----||
||*----2---2---2---2---2---2---2---2-|----2---2---2---2---2---2---2---2-*||
||*----------------------------------|----------------------------------*||
||---0-------------------------------|--0--------------------------------||
||-----------------------------------|-----------------------------------||


   2x------------------------------------------------------------------    
||---0-------0-------0-------1-------|--0-------0-------0-------0--------||
||-------1-------1-------1-------1---|------0-------0-------0-------0----||
||*----2---2---2---2---0---0---2---2-|----1---1---1---1---1---1---1---1-*||
||*------2-------2-------2-------3---|------2-------2-------2-------2---*||
||---0-------0-------3---------------|--2-------2-------2-------2--------||
||---------------------------1-------|-----------------------------------||


   2x-------------------------------------------------------------------    
||---0-------0-------0-------1-------|--0-------0-------0-------0--------||
||-------1-------1-------1-------1---|------0-------0-------0-------0----||
||*----2---2---2---2---0---0---2---2-|----1---1---1---1---1---1---1---1-*||
||*------2-------2-------2-------3---|------2-------2-------2-------2---*||
||---0-------0-------3---------------|--2-------2-------2-------2--------||
||---------------------------1-------|-----------------------------------||


     
||---1-------1-------1-------1-------|--0-------0-------0-------0-------|
||-------1-------1-------1-------1---|------1-------1-------1-------1---|
||*----2---2---2---2---2---2---2---2-|----0---0---0---0---0---0---0---0-|
||*------3-------3-------3-------3---|------2-------2-------2-------2---|
||-----------------------------------|--3-------3-------3-------3-------|
||---1-------1-------1-------1-------|----------------------------------|


                                    1x--------------------------------
--0-------0-------0-------0-------|--0-------0-------0-------0--------||
------0-------0-------0-------0---|------1-------1-------1-------1----||
----1---1---1---1---1---1---1---1-|----2---2---2---2---2---2---2---2-*||
------2-------2-------2-------2---|------2-------2-------2-------2---*||
--2-------2-------2-------2-------|--0-------0-------0-------0--------||
----------------------------------|-----------------------------------||


  
----------------------------------|----------------------------------|
--1-------------------------1-----|--1-------------------------------|
----2---2---2---2---2---2---2---2-|------------------------------2---|
------2---2---2-------2-------2---|----3---3---3---3---3---3---3---3-|
--0---------------0-------0-------|------3---3---3-------3-------3---|
----------------------------------|--1---------------1-------1-------|


    
----------------------------------|----------------------------------|
----------------------------------|----------------------------------|
--0-------------------------0-----|--1---------------------------1---|
----2---2---2---2---2---2---2---2-|----2---2---2---2---2---2---2---2-|
--3---3---3---3---3---3---3---3---|--2---2---2---2-------2-------2---|
----------------------------------|------------------0-------0-------|


    
----------------------------------|----------------------------------|
----------------------------------|------------------1-----------1---|
--2-------------------------2-----|--2-----------------------2-------|
----2---2---2---2---2---2---2---2-|----3---3---3---3---3---3---3---3-|
--0---0---0---0---0---0---0---0---|------3---3---3-------3-------3---|
----------------------------------|--1---------------1-------1-------|


    
----------------------------------|----------------------------------|
------------------1---------------|----------------------------------|
--0-----------------------0-------|--1---------------------------1---|
----2---2---2---2---2---2---2---2-|----2---2---2---2---2---2---2---2-|
--3---3---3---3---3---3---3---3---|--2---2---2---2-------2-------2---|
----------------------------------|------------------0-------0-------|


    
----------------------------------|----------------------------------|
----------------------------------|--1-------------------------------|
--2-------------------------2-----|------------------------------2---|
----2---2---2---2---2---2---2---2-|----3---3---3---3---3---3---3---3-|
--0---0---0---0---0---0---0---0---|------3---3---3-------3-------3---|
----------------------------------|--1---------------1-------1-------|


    
----------------------------------|--------------------------0-------|
----------------------------------|------------------0-----------0---|
--0-------------------------0-----|--1-------1---------1---1---1---1-|
----2---2---2---2---2---2---2---2-|----2---2---2---2-----2-----------|
--3---3---3---3---3---3---3---3---|--2---2-------2-------------------|
----------------------------------|----------------------------------|


     
||---1-------1-------1-------1-------|--0-------0-------0-------0-------|
||-------1-------1-------1-------1---|------1-------1-------1-------1---|
||*----2---2---2---2---2---2---2---2-|----0---0---0---0---0---0---0---0-|
||*------3-------3-------3-------3---|------2-------2-------2-------2---|
||-----------------------------------|--3-------3-------3-------3-------|
||---1-------1-------1-------1-------|----------------------------------|


                                    1x-------------------------------
--0-------0-------0-------0-------|--0-------0-------0-------0--------||
------0-------0-------0-------0---|------1-------1-------1-------1----||
----1---1---1---1---1---1---1---1-|----2---2---2---2---2---2---2---2-*||
------2-------2-------2-------2---|------2-------2-------2-------2---*||
--2-------2-------2-------2-------|--0-------0-------0-------0--------||
----------------------------------|-----------------------------------||


  W                  
-------------------||
-------------------||
--2----------------||
--2----------------||
--0----------------||
-------------------||





Tap to rate this tab
 
# A B C D E F G H I J K L M N O P Q R S T U V W X Y Z