Song name
# A B C D E F G H I J K L M N O P Q R S T U V W X Y Z

Carly Comando - Everyday tab

This is my VERY FIRST tab, there may be a few mistakes, but oh well.
I was sitting in my living room and came up with this. Expect the rest of the song 
I'll try to figure it out.

e|------------------------------------------------------------------------|
B|----1---1---1---1---1---1---1---1---------------------------------------|
G|--2---2---2---2---2---2---2---2-----------------------------------------|
D|------------------------------------------------------------------------|
A|------------------------------------------------------------------------|
E|------------------------------------------------------------------------|


e|-------------------------------------|
B|-------------------------------------|
G|-----2-----2-----2----2-----2-----2--|
D|---3-----3-----3----3-----3-----3----|
A|-------------------------------------|
E|-------------------------------------|


e|-------------------------------------|
B|-------------------------------------|
G|-----0-----0-----0----0-----0-----0--|
D|---2-----2-----2----2-----2-----2----|
A|-------------------------------------|
E|-------------------------------------|


e|-------------------------------------|
B|-------------------------------------|
G|-----1-----1-----1----1-----1-----1--|
D|---2-----2-----2----2-----2-----2----|
A|-------------------------------------|
E|-------------------------------------|
Tap to rate this tab
 
# A B C D E F G H I J K L M N O P Q R S T U V W X Y Z