Song name
# A B C D E F G H I J K L M N O P Q R S T U V W X Y Z

Carry On - The View tab

CARRY ON
“THE VIEW”
STANDARD TUNING

|--------------------------------------|
|--------------------------------------|
|---5-2-5-2-5-2-2-88888888888888-------|
|---5-2-5-2-5-2-2-88888888888888-------|
|---3-0-3-0-3-0-0-66666666666666-------|
|--------------------------------------|

       
|----------------------------------------------------|
|----------------------------------------------------|
|---5-2-5-2-5-2-2-88888888888888---11111111111111----|
|---5-2-5-2-5-2-2-88888888888888---9-9-9-9-9-9-9-----|
|---3-0-3-0-3-0-0-66666666666666---9-9-9-9-9-9-9-----|
|----------------------------------------------------|


|---------------------------------------------|
|---------------------------------------------|
|---------------------------------------------|
|---777-777-777-777-777-777-7----------8857\--|
|---777-777-777-777-777-777-7----------8857\--|
|---555-555-555-555-555-555-5----------6635\--|
    ..  ..  ..  ..  ..  ..               
Tap to rate this tab
# A B C D E F G H I J K L M N O P Q R S T U V W X Y Z