Song name
# A B C D E F G H I J K L M N O P Q R S T U V W X Y Z

Cars - All Mixed Up tab

The Cars
All Mixed Up (Intro)
standard tuning

/ slide up
^ hammer on or off

|----------------------------------------|
|---------------3------------0-----------|
|----------0-----------------------------|
|---2/4----------------4-----------------| X6
|----------------------------------------|
|----------------------------------------|

(synth sounding part)
|--------------------------------------------------------------12----------|
|--12--12---------14^15^14------------------14------15-----------------14--|
|------------14---------------14--12-----12------12-------12------12-------|
|--------------------------------------------------------------------------|
|--------------------------------------------------------------------------|
|--------------------------------------------------------------------------|
Tap to rate this tab
 
# A B C D E F G H I J K L M N O P Q R S T U V W X Y Z