Song name
# A B C D E F G H I J K L M N O P Q R S T U V W X Y Z

Cars - You Might Think tab

------------------------------------------|
              YOU MIGHT THINK - The Cars -|
Tabbed by: Rhythm Hippy
email: rpgoss@planters.net
Tuning: Standard (EADGBe)


Guitar I (repeat throughout song)
e|-------------------------------------------------------|
B|-------------------------------------------------------|
G|-------------------------------------------------------|
D|-12-12-12-12-12-12-12-12\-7-7-7-7-7-7-7/-9-9-9-9-9-9-9-|
A|-12-12-12-12-12-12-12-12\-7-7-7-7-7-7-7/-9-9-9-9-9-9-9-|
E|-10-10-10-10-10-10-10-10\-5-5-5-5-5-5-5/-7-7-7-7-7-7-7-|
    .  .  .  .  .  .  .  .  . . . . . . .  . . . . . . .
e|------------------|
B|------------------|
G|------------------|
D|-\5-5-5-5-5-5-5/--|
A|-\5-5-5-5-5-5-5/--|
E|-\3-3-3-3-3-3-3/--|
    . . . . . . .

Guitar II (heavy distortion)
e|-----------------------------------------------------|
B|-----------------------------------------------------|
G|-5-5-5-7-5--5-5-5-7-5--7-7-7-9-7--5-5-5-7-5-4-5------|
D|-5-5-5-7-5--5-5-5-7-5--7-7-7-9-7--5-5-5-7-5-4-5------|
A|-----------------------------------------------------|
E|-----------------------------------------------------|
                                   (-----x3------------|
 /  slide up
 \  slide down
 .  palm mute


thats all i got so far- the chorus is the first part, guitar I. i'll get the solo and 
that was thrown in there later. peace out and rock on.
Tap to rate this tab
 
# A B C D E F G H I J K L M N O P Q R S T U V W X Y Z