Guitaretab - guitar tabs
Song name
# A B C D E F G H I J K L M N O P Q R S T U V W X Y Z

Carter Sydney - Lord Of The Dance tab

Riverdance (Lord of the Dance) on guitar
standard tuning

Remember one thing, there are some licks that are not the same
as how the violin plays it, that's because of different tuning
between guitar and violin.

Also, i am not good at tabbing at all so there might be some
things that clear or so, please let me know and i'll see if
i can clear them up
chaosmarcel@hotmail.com

part 1
|--5-2---2h3p2------2-2-3-5-3-2------------------------------2-5-|
|------5-------5-3--------------5------3-5p3p2h3-------3---3-----|
|---------------------------------2-2------------2-2-2---2-------|
|----------------------------------------------------------------|
|----------------------------------------------------------------|
|----------------------------------------------------------------|

                               2x
 -3-2---------3-2--------------|
 -----5-5-5-5-----5-3-5p3p2p3--|
 ------------------------------|
 ------------------------------|
 ------------------------------|
 ------------------------------|

Part 2 (basiclly the same as part 1 only a few steps higher ;-))
|-10-7----7h8p7-------7-7-8-10-8-7----------------------------|
|------10-------10-8---------------10------8-10p8p7h8-------8-|
|-------------------------------------7-7-------------7-7-7---|
|-------------------------------------------------------------|
|-------------------------------------------------------------|
|-------------------------------------------------------------|

                                               2x
 -----7-10--8-7-------------8-7----------------|
 ---8-----------10-10-10-10-----10-8-10p8p7h8--|
 -7--------------------------------------------|
 ----------------------------------------------|
 ----------------------------------------------|
 ----------------------------------------------|

Part 3
|--------2-22-5-5-2----------2h3p2-------------2-22-5-5-2------|
|----3-33------------5-5-5-5-------5-3-2---3-33------------5-5-|
|--2-------------------------------------2---------------------|
|--------------------------------------------------------------|
|--------------------------------------------------------------|
|--------------------------------------------------------------|


 -----3-2--------------|
 -5-5-----5-3-5p3p2h3--|
 ----------------------|
 ----------------------|
 ----------------------|
 ----------------------|


-Part 2


part 4 (you can play this in diffrent ways if you want, the first
i played in the video the others are options.. whatever you like)
|-----------------|-----------------|------------------------|
|-0---0---0---0---|-----------------|------------------------|
|-4---4---4---6---|-----------------|-9~---11~---12~---14~---|
|-2---4---5---7---|-2---4---5---7---|------------------------|
|-----------------|-2---4---5---7---|------------------------|
|-----------------|-0---2---3---5---|------------------------|


Part 5
|-0-0-3-0-5-0-7-0-0-0-3-0-8-0-7---0-2-3-5-3-2-3/-|
|-------------------------------3----------------|
|------------------------------------------------|
|------------------------------------------------|
|------------------------------------------------|
|------------------------------------------------|
[ Tab from: http://www.guitaretab.com/c/carter-sydney/3086.html ]
                                                2x
|-0-0-3-0-5-0-7-0-0-0-3-0-8-0-7---0-2-3-5p3p2-0-|
|-------------------------------3------------3--|
|-----------------------------------------------|
|-----------------------------------------------|
|-----------------------------------------------|
|-----------------------------------------------|


|----------------------------------------------------|
|-0-0-5-0-7-0-8-0-0-0-5-0-7-0-8----------------------|
|---------------------------------7-9-11/12-11-9-11--|
|-------------------------------7--------------------|
|----------------------------------------------------|
|----------------------------------------------------|

                                                    2x
 ---------------------------------------------------|
 -0-0-5-0-7-0-8-0-0-0-5-0-7-0-8---------------------|
 ---------------------------------7-9-11-12p11p9--9-|
 -------------------------------7---------------12--|
 ---------------------------------------------------|
 ---------------------------------------------------|


-Part 2


Part 6
|--------7-77-10-10-7-------------7h8p7--------------7-77-|
|----8-88-------------10-10-10-10-------10-8-7---8-88-----|
|--7-------------------------------------------7----------|
|---------------------------------------------------------|
|---------------------------------------------------------|
|---------------------------------------------------------|


 -10-10-7-------------8-7----------------|
 ---------10-10-10-10-----10-8-10p8p7h8--|
 ----------------------------------------|
 ----------------------------------------|
 ----------------------------------------|
 ----------------------------------------|

Part 7 (tempo increases)
|-12-9----9h10p9--------9-9-10-12-10-9-----------------------|
|------12--------12-10-----------------12------10-12p10p9h10-|
|-----------------------------------------9-9----------------|
|------------------------------------------------------------|
|------------------------------------------------------------|
|------------------------------------------------------------|


 ---------------9-12--10-9-------------10-9-------------------|
 -------10---10------------12-12-12-12------12-10-12p10p9h10--|
 -9-9-9----9--------------------------------------------------|
 -------------------------------------------------------------|
 -------------------------------------------------------------|
 -------------------------------------------------------------|


|-12-9----9h10p9--------9-9-10-12-10-9-----------------------|
|------12--------12-10-----------------12------10-12p10p9h10-|
|-----------------------------------------9-9----------------|
|------------------------------------------------------------|
|------------------------------------------------------------|
|------------------------------------------------------------|


 ---------------9-12--10-9-------------10-9-------12/17-------|
 -------10---10------------12-12-12-12------12-10-------------|
 -9-9-9----9--------------------------------------------------|
 -------------------------------------------------------------|
 -------------------------------------------------------------|
 -------------------------------------------------------------|

Have Fun!
Advertisement will be closed in 10 seconds