Cary Brothers - Ride tab

Tuning: Standard

| h   hammer-on
| p   pull-off
| /   slide up
| \   slide down

All guitars tuned EADGBe
 {Gtr 1 - clean electric with delay
 {Gtr 2 - clean electric
 {Gtr 3 - acoustic

As great as it is, this song is pretty basic; each guitar has its own cool riff 
that it repeats during the song. Here are each of the parts:

  {Gtr 1
e|-------------------------------------------------------|
B|-------------------------------------------------------|
G|-------------------------------------------------------|
D|-----10--9--5--2--0h2-2p0-0----10--9--5--2--0h2-2p0-0--|
A|-------------------------------------------------------|
E|--5-------------------------3--------------------------|

  {Gtr 2
e|-----------------------------------------------------------|
B|--10h12-12-12--12-12-12-12p10-10-10--10-10-10-10h12-12-12--|
G|-----------------------------------------------------------|
D|-----------------------------------------------------------|
A|-----------------------------------------------------------|
E|-----------------------------------------------------------|

e|--------------------------------------------------------------------|
B|--12-12-12-12p10-10-10--10-10-10-10h12-12-12--12-12-12-12p10-10-10--|
G|--------------------------------------------------------------------|
D|--------------------------------------------------------------------|
A|--------------------------------------------------------------------|
E|--------------------------------------------------------------------|

e|---------------------------------------------|
B|--10-10-10-10\8-8-8\7-7-7\5-5-5\3--3-3/5-5~--|
G|---------------------------------------------|
D|---------------------------------------------|
A|---------------------------------------------|
E|---------------------------------------------|

  {Gtr 3

Chords Used:
    Am*   C5   G5   D5     Am   C   G   D/A
e|----------------------|--0----0---3----2---|
B|---1----1----3----3---|--1----1---3----3---|
G|---2----0----0----2---|--2----0---0----2---|
D|---2----x----0----0---|--2----2---0----0---|
A|---0----3----x----0---|--0----3---2----0---|
E|-------------3--------|-----------3--------|

Am*    C5  G5      D5            
   You are    everything I wanted
Am*     C5   G5             D5
   The scars    of all I'll ever know

     Am*                C5
If I told you you were right
          G5             D5
Would you take my hand tonight?
     Am*                  C5
If I told you the reasons why
          G5              D5 
Would you leave your life    and ride?


-~- From here on out, the chord progression is Am-C-G-D/A  -~-


Am     C   G        D/A           
   You saw   all my pieces broken
Am       C       G              D/A
   This darkness   that I could never show


     Am                 C
If I told you you were right
          G              D/A
Would you take my hand tonight?
     Am                   C
If I told you the reasons why
           G              D/A 
Would you leave your life     and ride?


And that covers it. God bless!
Tap to rate this tab
 
# A B C D E F G H I J K L M N O P Q R S T U V W X Y Z