Guitaretab - guitar tabs
Song name
# A B C D E F G H I J K L M N O P Q R S T U V W X Y Z

Cast - Guiding Star tab

-------------------------------------------------------------------------------
			    cast - guiding star
-------------------------------------------------------------------------------
Tabbed by: orangecrushrox
Email: itstheendoftheworldasweknowit-@hotmail.co.uk

Tuning: standard

i dont see y no1 has ever heard of cast coz they r an amzin band and rely shud hav made
it big. ths is off MOTHER NATURE CALLS and got 2 numba 2 in th charts if i rememba rite


im jus gonna do th leed gitar part coz th chords r really simple an almost th same all
th way throo

chorus

e|---------------------------------------------------------------------------|
B|--3\-1-------1-----3--------------3\-1-------1-----3-----------------------|
G|---------3--------------3----------------3--------------3------------------|
D|---------------------------------------------------------------------------|
A|---------------------------------------------------------------------------|
E|---------------------------------------------------------------------------|

tats about all 4 there in th verse an pre-chorus its all jus th rythm gitars but theres
an almost solo in th middle an a bridge wich r quite gd 2 learn

rite in th solo thng its jus th chorus riff 4 a while but thn u hav 2 do-
[ Tab from: http://www.guitaretab.com/c/cast/123899.html ]
e|---------------------------------------------------------------------------|
B|-----6--4--2---4----6----6---4---------------------------------------------|
G|---------------------------------------------------------------------------|
D|---------------------------------------------------------------------------|
A|---------------------------------------------------------------------------|
E|---------------------------------------------------------------------------|

an in th bridge.....

e|---------------------------------------------------------------------------|
B|---1---1----1----3----1--------1---1-----1------3---3---3----1-------------|
G|----------3-----3-----------0---------3------3-----------------------------|
D|---------------------------------------------------------------------------|
A|---------------------------------------------------------------------------|
E|---------------------------------------------------------------------------|

e|--------------------------------------1--1--1--1--1--1--1--1--1------------|
B|1---1-----1------3----1----------------------------------------------------|
G|-------3------3-----------0------------------------------------------------|
D|---------------------------------------------------------------------------|
A|---------------------------------------------------------------------------|
E|---------------------------------------------------------------------------|

tats about it u reely need th chords 2 make th song really wrk tho so dont just
go about thinkin its not loud enuff or woteva

| /  slide up
| \  slide down
| h  hammer-on
| p  pull-off
| ~  vibrato
| +  harmonic
| x  Mute note
Related for Guiding Star tab
Advertisement will be closed in 10 seconds