Song name
# A B C D E F G H I J K L M N O P Q R S T U V W X Y Z

Casting Crowns - My Savior Loves My Savior Lives tab

Highlighted       Show chord diagrams
-------------------------------------------------------------------------------
			     My Savior Loves, My Savior Lives - Casting Crowns
-------------------------------------------------------------------------------
Tabbed by:Doodle
Email:
Tuning:Drop D


Intro/ Verse
      D         B        A
e|----2---------0--------0------------------------------------------------------|
B|----3---------3--------2------------------------------------------------------|
G|----2---------4--------2------------------------------------------------------|
D|----0---------4--------2------------------------------------------------------|
A|----0---------2--------0------------------------------------------------------|
E|----0---------x--------x------------------------------------------------------|

Chorus
     B      G     D     A
e|----------x-----------------------------------------------------------------|
B|----------x-----------------------------------------------------------------|
G|----------x-----------------------------------------------------------------|
D|----------5-----------------------------------------------------------------|
A|----------5-----------------------------------------------------------------|
E|----------5-----------------------------------------------------------------|

You'll have to listen to the song to see what the chord pattern is and what order 
goes in. Thanks

===============================================================================
Tap to rate this tab
 
# A B C D E F G H I J K L M N O P Q R S T U V W X Y Z