Song name
# A B C D E F G H I J K L M N O P Q R S T U V W X Y Z

Casting Crowns - Until The Whole World Hears tab

Intro
                                         C#             C#
e---------------------------------------4-4------------4-4------------->
B---------------------------------------6-6------------6-6------------->
G---------------------------------------6-6--6-6-5^----6-6--6-6-5^----->
D---------8-8-6-6-6-8--------8-8-6-6-6--6-6---------3--6-6----------3-->
A---------------------------------------4-4------------4-4------------->
E---6-6----------------6-6--------------0-0------------0-0------------->

Verse (use same chords for 2nd verse)

 Lord I wanna feel... See the world...
e---------------------------------------4-4------------4-4------------->
B---------------------------------------6-6------------6-6------------->
G---------------------------------------6-6--6-6-5^----6-6--6-6-5^----->
D---------8-8-6-6-6-8--------8-8-6-6-6--6-6---------3--6-6---------3--->
A---------------------------------------4-4------------4-4------------->
E---6-6----------------6-6--------------0-0------------0-0------------->

 I wanna be your... Live a life that leads...
e---------------------------------------4-4------------4-4------------->
B---------------------------------------6-6------------6-6------------->
G---------------------------------------6-6--6-6-5^----6-6--6-6-5^----->
D---------8-8-6-6-6-7--------8-8-6-6-6--6-6---------3--6-6---------3--->
A---------------------------------------4-4------------4-4------------->
E---6-6----------------6-6--------------0-0------------0-0------------->

Chorus

 Ready...Ready...Let us...OOH Ready...Ready...May the...
    F#     A#M7  G#            F#     A#M7  G#
e---2------6-----4-------------2------6-----4-------------------------->
B---2------6-----4-------------2------6-----4-------------------------->
G---3------6-----5-------------3------6-----5-------------------------->
D---4------8-----6-------------4------8-----6-------------------------->
A---4------8-----6-------------4------8-----6-------------------------->
E---2------6-----4-------------2------6-----4-------------------------->

 Until the whole...Calling out...Lifting up your name...hear the sound...
    C#                G#             A#M7                  F#
e---4-----------------4--------------6---------------------2----------->
B---6-----------------4--------------6---------------------2----------->
G---6-----------------5--------------6---------------------3----------->
D---6-----------------6--------------8---------------------4----------->
A---4-----------------6--------------8---------------------4----------->
E---4-----------------4--------------6---------------------2----------->

Like voices in....Crying out....and as the day draws...sing until...
e---4-----------------4--------------6---------------------4----------->
B---6-----------------4--------------6---------------------4----------->
G---6-----------------5--------------6---------------------5----------->
D---6-----------------6--------------8---------------------6----------->
A---4-----------------6--------------8---------------------6----------->
E---4-----------------4--------------6---------------------4----------->

(2nd Verse)
same as first verse

(chorus)
sing until the whole world hears...

OOOOHH..............OOOOHH.........OOOOHH...............Sing until..
e---2-----------------6--------------4---------------------4----------->
B---2-----------------6--------------6---------------------4----------->
G---3-----------------6--------------6---------------------5----------->   X2
D---4-----------------8--------------6---------------------6----------->
A---4-----------------8--------------4---------------------6----------->
E---2-----------------6--------------4---------------------4----------->

Bridge

  Want...I Want...set the captive free....

e---2------4------6--------4--->
B---2------6------6--------4--->
G---3------6------6--------5--->         Repeat for 2nd part of bridge...
D---4------6------8--------6--->
A---4------4------8--------6--->
E---2------4------6--------4--->

(Chorus)


OOOOHH..............OOOOHH.........OOOOHH...............Sing until..
e---2-----------------6--------------4---------------------4----------->
B---2-----------------6--------------6---------------------4----------->
G---3-----------------6--------------6---------------------5----------->  X3
D---4-----------------8--------------6---------------------6----------->
A---4-----------------8--------------4---------------------6----------->
E---2-----------------6--------------4---------------------4----------->
Tap to rate this tab
 
# A B C D E F G H I J K L M N O P Q R S T U V W X Y Z