Song name
# A B C D E F G H I J K L M N O P Q R S T U V W X Y Z

Casting Crowns - Here I Go Again tab

100% figured out by year


-------------------------------------------------------|
b------------------------------------------------------|
g------------------------------------------------------|
d----3-5~--5-3-------3---------------------------------|
a--5-----------5-3-5---5~---3---3-5-3~----------3~-----|
e-----------------------------6---------6-5-6~---------|


e---------------------------------------------------------------------|
b----------------------------------------------8~-------6~----4~~~----|
g-------------------------------------------/7-------/5---------------|
d-----3-5~--5-3-------3-----------------------------------------------|
a---5-----------5-3-5---5~---3---3-5-3~-------------------------------|
e------------------------------6--------------------------------------|
Tap to rate this tab
 
# A B C D E F G H I J K L M N O P Q R S T U V W X Y Z