Song name
# A B C D E F G H I J K L M N O P Q R S T U V W X Y Z

Casual Wish - Tonight Tonight tab

Casual Wish
"Tonight Tonight"

  Intro:
E|---------0----------0--0----0--0--0---------|
B|-0--0---0---0--0---0---0---0---3-----0-2-0--|
G|-2--1--1----2--1--1----1--1----2----2-------|
D|-2--2-------2--2-------2-------0------------|
A|-0--0-------0--0-------2--------------------|
E|-----------------------0--------------------|


 Verse:
 "Let's close our eyes tonight..."
E|-----------------------0-----0--------------|
B|-0----0-----0-----0----0-----3--------------|
G|-2----1-----2-----1----1-----2--------------|
D|-2----2-----2-----2----2-----0--------------|
A|-0----0-----0-----0----0--------------------|
E|-----------------------0--------------------|

Pre-chorus:

  "My skin's holding my heart inside..."
E|-0~--0~-------------------------------------|
B|-3~--3~-------------------------------------|
G|-2~--2~-------------------------------------|
D|-0~--0~-------------------------------------|
A|--------------------------------------------|
E|--------------------------------------------|


Chorus:

 "Tonight, tonight, you're the last thing on my mind..."
E|-0----0----0----0---------------------------|
B|-0----0----3----0---------------------------|
G|-2----1----2----1---------------------------|
D|-2----2----0----2---------------------------|
A|-0----2---------2---------------------------|
E|------0---------0---------------------------|


  Intro:
E|---------0----------0--0----0--0--0---------|
B|-0--0---0---0--0---0---0---0---3-----0-2-0--|
G|-2--1--1----2--1--1----1--1----2----2-------|
D|-2--2-------2--2-------2-------0------------|
A|-0--0-------0--0-------2--------------------|
E|-----------------------0--------------------|

 Verse:
 "The second verse is getting worse..."
E|-----------------------0-----0--------------|
B|-0----0-----0-----0----0-----3--------------|
G|-2----1-----2-----1----1-----2--------------|
D|-2----2-----2-----2----2-----0--------------|
A|-0----0-----0-----0----0--------------------|
E|-----------------------0--------------------|


Chorus:

 "Tonight, tonight, you're the last thing on my mind..."
E|-0----0----0----0---------------------------|
B|-0----0----3----0---------------------------|
G|-2----1----2----1---------------------------|
D|-2----2----0----2---------------------------|
A|-0----2---------2---------------------------|
E|------0---------0---------------------------|

Lyrics:

Lets close our eyes tonight,
We'll sleep on the floor and only hoping I wake up alive,
Never calling home cause when she answers,
She'll tear straight through my throat (through my throat),
These mirrors haunt me; the plague surrounds me,
My skin's holding my heart inside -

Tonight, tonight your the last thing on my mind,
Tonight, tonight your the last thing on my mind-
Tonight,

The second verse is getting worse,
Sorry I wasted your time last night (last night),
You tore up the dance floor while I kept your seat warm,
Just in time to see you smile,
She's no queen and that's fine by me,
Whoever thought she was, was wrong-

Tonight, Tonight your the last thing on my mind,
Tonight, Tonight your the last thing on my mind,
Tonight, Tonight your the last thing on my mind,
Tonight...
Tap to rate this tab
# A B C D E F G H I J K L M N O P Q R S T U V W X Y Z