Song name
# A B C D E F G H I J K L M N O P Q R S T U V W X Y Z

Cat Power - Sleepwalker tab

Song: Sleepwalker
Artist: Cat Power
Tab: Ignis777

The intro sounds like this...

E||--------------------------|--------------------------|
B||--------------------------|--------------------------|
G||--------------------------|--------------------------|
D||--------------------------|--------------------------|
A||-----3-----3--------3-----|-----5-----5--------5-----|
E||--1-----1-----1--1-----3--|--3-----3-----3--3-----3--|


  E  E  E  E  E  E  E  E     E  E  E  E  E  E  E  E
--------------------------|--------------------------|
--------------------------|--------------------------|
--------------------------|--------------------------|
-----7-----7--------7-----|--------------------------|
--5-----5-----5--5-----5--|-----7-----7--------7-----|
--------------------------|--5-----5-----5--5-----5--|


  E  E  E  E  E  E  E  E     E  E  E  E  E  E  E  E
--------------------------|--------------------------|
--------------------------|--------------------------|
--------------------------|--------------------------|
--------------------------|--------------------------|
-----3-----3--------3-----|-----5-----5--------5-----|
--1-----1-----1--1-----3--|--3-----3-----3--3-----3--|


  E  E  E  E  E  E  E  E     E  E  E  E  E  E  E  E
--------------------------|--------------------------||
--------------------------|--------------------------||
--------------------------|--------------------------||
-----7-----7--------7-----|--------------------------||
--5-----5-----5--5-----5--|-----7-----7--------7-----||
--------------------------|--5-----5-----5--5-----5--||

The chords

    F5 G5 D5 A5
G|---------7----------|
D|---3--5--7--7-------|
A|---3--5--5--7-------|
E|---1--3-----5-------|

you can use Major chords for the clean parts...
Tap to rate this tab
# A B C D E F G H I J K L M N O P Q R S T U V W X Y Z