Song name
# A B C D E F G H I J K L M N O P Q R S T U V W X Y Z

Cat Power - Werewolf tab

Highlighted       Show chord diagrams
-------------------------------------------------------------------------------
			     Werewolf - Cat Power
-------------------------------------------------------------------------------
Tabbed by:Ignis777
Email:the_rameras_and_the_chupilupis@hotmail.com

Tuning: Standard

This is an easy song...

Chords: Am E F E for the whole song...

   Am   E    F    E
e|-------------1------|
B|---1---------1------|
G|---2----1----2---1--|
D|---2----2----3---2--|
A|-0------2----1---2--|
E|------0----1----0---|

Thanks...
Tap to rate this tab
 
# A B C D E F G H I J K L M N O P Q R S T U V W X Y Z