Song name
# A B C D E F G H I J K L M N O P Q R S T U V W X Y Z

Cat Power - I Found A Reason tab

Help us improve GuitareTab! Take a short survey!
Cat Power
I Found A Reason

Chords Relative to Capo
Capo: 1st Fret

This is a little something I threw together. The chords I found were a little sketchy, 
I tried to make this tab as close to the song as possible, this is what I came up with.

Verse:
      C          Em         Asus      Am
e---------0------3--------3------------0-------------|
B-----1----------0----0------3----3----------1----1--|
G-0-2---------0---------------------2----------2-----| x 3
D-------2---2----5------5-------2------2---2---------|
A-----3----------5--5--------0---------0-------------|
E----------------------------------------------------|

at the end of the third, play this as the last part:

     F                   G
e---------1-------------------|
B-----1-----------3--1--------|
G-------------1--------2--0---|
D-------3---2-------------0---|
A-----3-----------------------|
E-------------------------3---|
"came before..."


Chorus:
  C     Em              Asus      Am
e-----0----------0-----------------0-------------|
B-1----------0--------0--3----3----------1----1--|
G---------0--------0------------2----------2-----| x 3
D---2---2------0------------2------2---2---------|
A-3----------2-----------0---------0-------------|
E------------------------------------------------|
      F                   G
e---------1-------------------|
B-----1-----------3--1--------|
G-------------1--------2--0---|
D-------3---2-------------0---|
A-----3-----------------------|
E-------------------------3---|
"better come..."

Repeat twice, and there you go! =]
Feel free to e-mail with questions, kudos, or whatever at:

PurpleDaughters@rocketmail.com
Related for I Found A Reason tab