Song name
# A B C D E F G H I J K L M N O P Q R S T U V W X Y Z

Catalepsy - Punishment tab

Band: Catalepsy(myspace.com/catalepsy)
Song: Punishment
Tuning: Drop A
Tabber:I<3Hobos
*=pinch harmonic

|--------------------------------------------------------------------|
|--------------------------------------------------------------------|
|--------------------------------------------------------------------|
|--------------------------------------------------------------------|
|-333-----333--------------333----333----444-------------------------|
|------------------0-1-0-1-----------------------0-1-0-1-2-1-0-1-----|
|-----111-----111--0-1-0-1----111----111-----111-0-1-0-1-2-1-0-1-----|

|-----------------------------------------------------------------------|
|-----------------------------------------------------------------------|
|-----------------------------------------------------------------------|
|-----------------------------------------------------------------------|
|-4---------------------------------4-----------------------------------|
|-1-0-1-2----1-0-1--1-2-3-1-1-2-1-1-1-0-1-2----1-0-1--1-2-1-------------|
|---0-1-2-3--0-1-0--2-3-2-0-2-3-2-0---0-1-2-3--0-1-0--2-3-2-0-444-111---|
          *                                 *
breakdown
|--------------------------|
|--------------------------|
|--------------------------|
|--------------------------|
|-4------------------------|
|-1-0-1-0--1-2--0-1-2------|
|---0-2-0--2-3--0-2-3------|

4 open chords then double bass riff
|-------------------------------------------------|
|-------------------------------------------------|
|-------------------------------------------------|
|-------------------------------------------------|
|---5-8---8-11---5-8---8-11--11p8-------8p5-------|
|---4-7---7-10---4-7---7-10-------10--------7-----|
|-0-2-5-0-5-8--0-2-5-0-5-8-----------8--------5---|

then its pretty much just repeat from there
Tap to rate this tab
# A B C D E F G H I J K L M N O P Q R S T U V W X Y Z