Song name
# A B C D E F G H I J K L M N O P Q R S T U V W X Y Z

Catch 22 - Neverending Story tab

-------------------------------------------------------------------------------
			     Neverending Story - Catch 22
-------------------------------------------------------------------------------
Tabbed by:Vtrillo627
Email:it_dies_today84@yahoo.com

Tuning:Standard



Intro:

e|-----------------------------------------------------------|
B|-----------------------------------------------------------|
G|-----------2-2-------5-----5-----------2-2-----------------| x6
D|-----------2-2-------5-----5-----------2-2------2-----5----|
A|---0-0-0-0-0-0---0-0-3-0-0-3---0-0-0-0-0-0------2-----5----|
E|--------------------------------------------0-0-0-0-0-3----|

e|--------|
B|--------|
G|--------| x9
D|---2----|
A|---2----|
E|---0----|



Verse:
    
e|---5-5--5-5---4-4--4-4--------------3-3--3-3----|
B|---5-5--5-5---5-5--5-5---5-5--5-5---3-3--3-3----|
G|---5-5--5-5---4-4--4-4---5-5--5-5---4-4--4-4----| x6
D|-------------------------5-5--5-5---------------|
A|------------------------------------------------|
E|------------------------------------------------|

e|---5-----4-----------3------|
B|---5-----5-----5-----3------|
G|---5-----4-----5-----4------| x2
D|---------------5------------|
A|----------------------------|
E|----------------------------|

e|---5-5--5-5---4-4--4-4--------------3-3--3-3----|
B|---5-5--5-5---5-5--5-5---5-5--5-5---3-3--3-3----|
G|---5-5--5-5---4-4--4-4---5-5--5-5---4-4--4-4----| x4
D|-------------------------5-5--5-5---------------|
A|------------------------------------------------|
E|------------------------------------------------|



Chorus:

e|-------------------------------------------------|
B|-------------------------------------------------|
G|---2----------5----------2-----------------------| x2
D|---2----------5----------2----------2------------|
A|---0--0-0-0-0-3--0-0-0-0-0----------2------5-----|
E|----------------------------0-0-0-0-0--0-0-3-----|

e|-----------------------------------------------------------|
B|-----------------------------------------------------------|
G|-----------2-2-------5-----5-----------2-2-----------------| x2
D|-----------2-2-------5-----5-----------2-2------2-----5----|
A|---0-0-0-0-0-0---0-0-3-0-0-3---0-0-0-0-0-0------2-----5----|
E|--------------------------------------------0-0-0-0-0-3----|

e|--------|
B|--------|
G|--------| x9
D|---2----|
A|---2----|
E|---0----|

e|-----------------------------|
B|-----------------------------|
G|---5-5--4-4--2--2-2-2--2-2---| x3
D|---5-5--4-4--2--2-2-2--2-2---|
A|---3-3--2-2--0--0-0-0--0-0---|
E|-----------------------------|

e|--------|
B|--------|
G|--------| x9
D|---2----|
A|---2----|
E|---0----|



Verse:

e|---5-5--5-5---4-4--4-4--------------3-3--3-3----|
B|---5-5--5-5---5-5--5-5---5-5--5-5---3-3--3-3----|
G|---5-5--5-5---4-4--4-4---5-5--5-5---4-4--4-4----| x12
D|-------------------------5-5--5-5---------------|
A|------------------------------------------------|
E|------------------------------------------------|



Chorus:

e|-------------------------------------------------|
B|-------------------------------------------------|
G|---2----------5----------2-----------------------| x2
D|---2----------5----------2----------2------------|
A|---0--0-0-0-0-3--0-0-0-0-0----------2------5-----|
E|----------------------------0-0-0-0-0--0-0-3-----|

e|-----------------------------------------------------------|
B|-----------------------------------------------------------|
G|-----------2-2-------5-----5-----------2-2-----------------| x2
D|-----------2-2-------5-----5-----------2-2------2-----5----|
A|---0-0-0-0-0-0---0-0-3-0-0-3---0-0-0-0-0-0------2-----5----|
E|--------------------------------------------0-0-0-0-0-3----|

e|--------|
B|--------|
G|--------| x9
D|---2----|
A|---2----|
E|---0----|

e|-----------------------------|
B|-----------------------------|
G|---5-5--4-4--2--2-2-2--2-2---| x3
D|---5-5--4-4--2--2-2-2--2-2---|
A|---3-3--2-2--0--0-0-0--0-0---|
E|-----------------------------|

e|------------------|
B|------------------|
G|---5-5--4-4-4-2---| x3
D|---5-5--4-4-4-2---|
A|---3-3--2-2-2-0---|
E|------------------|



| /  slide up
| \  slide down
| h  hammer-on
| p  pull-off
| ~  vibrato
| +  harmonic
| x  Mute note
===============================================================================
Tap to rate this tab
 
# A B C D E F G H I J K L M N O P Q R S T U V W X Y Z