Guitaretab - guitar tabs
Song name
# A B C D E F G H I J K L M N O P Q R S T U V W X Y Z

Catch 22 - Giving Up Giving In tab

Catch 22 - Giving Up Giving In

awesome song, but i didnt see it right here, so i decided to put it up correctly, please rate!

Tabbed by: X

My guitar teacher taught this to me by ear, so its not 100% perfect, but its pretty close


these chords are for the finger picking, make them so it will be easier

I will also put the double notes in bold because it makes them easier to see

G Chord          D Chord        C Chord
-3-              -2             -0-|
-3-              -3             -1-|
-0-              -2             -0-|
-0-              -0             -2-|
-2-              -x             -3-|
-3-              -x             -x

Finger Picking Intro
e--3-------3--------2-----3p20-2---3-----3---------------------|
B----3-------3--------3---------------3--------------3-----3----|
G------0-------0--------2---------------0----------0-----0------|
D-------------------0-------------------------------------------|
A--------------------------------------------0h2h3-----2-----0--|
E--3--------------------------------3---------------------------|

e--3-------3------0-----0-------2-----2-----2-----2-------------|
B----3-------3------1-----1-------3-----3-----3-----3 ----------|
G------0-------0------0-----0-------2-----2-----2-----2---------|
D-------------------------------0-------------------------------|
A-----------------3---------------------------------------------|
E--3------------------------------------------------------------|

e--3-------3--------2-----3p20-2---0-----0------0-----0-------|
B----3-------3--------3---------------0-----0------1-----1-----|
G------0-------0--------2---------------0-----0------0-----0---|
D-------------------0------------------------------------------|
A------------------------------------------------3-------------|
E--3--------------------------------0--------------------------|
[ Tab from: http://www.guitaretab.com/c/catch-22/49810.html ]
e--2-----2-----|
B----3-----3---|
G------2-----2-|
D--0-----------|
A--------------|
E--------------|

e--3-------3--------2-----3p20-2---------3-----3-----------|
B----3-------3--------3-----------------3-----3-------------|
G------0-------0--------2-----------------------------------|
D-------------------0---------------------------------------|
A------------------------------------3-----2----0-----------|(after line times 3)
E--3--------------------------------------------------------|


End on

E--3--
B-----
G-----
D-----
A-----
E--3

Next part is:

e-----------------------------------|
B-----------------------------------|
G-----------------------------------|
D--5---4---2------------------------|
A--3---2---0---5-----5-----5-----5--|
E--------------3-----3-----3-----3--|

Verse 1
e----------------------|   beat not shown, but after 3 single notes (1
B----------------------|   space apart, repetitively do the one in bold
G----------------------|
D-------7---4---5-4-2--|
A---5---5---2---3-2-0--|
E---3------------------|

Chorus
e----------------|
B----------------|
G----------------|
D-5-----7--------|
A-3--5--5--5-----|
E----3-----3-----|      (let all notes ring)

Bridge
e--3--
B--3--
G--0--
D--0--
A--2--
E--3-   do that a lot of times, then go into this:

e-----------------------------------------| only do ()note last time
B-----------------------------------------|
G-----------------------------------------|
D---5--4--2-------------7-7--4-4--5-4-2---|(2)
A---3--2--0--------5-5--5-5--2-2--3-2-0---|(0)
E------------------3-3--------------------|

Verse 2
e------------------------| (same thing as 1 but slower)
B------------------------|
G------------------------|
D-------7-7--4-4--5-4-2--|
A--5-5--5-5--2-2--3-2-0-|
E--3-3-------------------|

figure out the order for yourself, its not too hard.
Related for Giving Up Giving In tab