Song name
# A B C D E F G H I J K L M N O P Q R S T U V W X Y Z

Catch 22 - Rocky tab

this song is not tabbed right anywhere so i decided to do it myself.
if ur decent at guitar u should be able to hear the chord changes.

intro:

e----------------------------------------------------------|
B----------------------------------------------------------|
G------7-------5-4------7----------------------------------|
D--7---7---5---5-4--3---7--2-------------------------------|
A--7---5---5---3-2--3---5--2-------------------------------|
E--5-------3--------1------0-------------------------------|

Horn section:

e-------------------------------------------|
B-------------------------------------------|
G-------------------------------------------|
D--7---3---5--------------------------------|
A--7---3---5--------------------------------|
E--5---1---3--------------------------------|


Verse (same as intro but with distortion)


Chorus
(begins with pick slide)


e--------------------------------------------|
B--------------------------------------------|
G------5---------------5---------------------|
D--3---5---3---7---3---5---5--2--------------|
A--3---3---3---7---3---3---5--2--------------|
E--1-------1---5---1-------3--0--------------|


horn section


verse 2


chorus


bridge (same chords as intro and verse but with alternate picking)


horn section x3


interlude: Play this twice

e-------------------------------------------|
B-------------------------------------------|
G---5---7-----------------------------------|
D---5---7---7---5---------------------------|
A---3---5---7---5---------------------------|
E-----------5---3---------------------------|

end second time with
e-------------------------------------------|
B-------------------------------------------|
G-------------------------------------------|
D---2---------------------------------------|
A---2---------------------------------------|
E---0---------------------------------------|


Outro:

e------------------------5---LET-----------------|
B------------------------5------This-------------|
G------------------------5----------Chord--------|
D--7---3---2---7--7--7---7---------------Ring----|
A--7---3---2---7--7--7---7-----------------------|
E--5---1---0---5--5--5---5-----------------------|
Tap to rate this tab
 
# A B C D E F G H I J K L M N O P Q R S T U V W X Y Z