Song name
# A B C D E F G H I J K L M N O P Q R S T U V W X Y Z

Catchingyourclouds - Stepping Stones tab

Capo 5th

 Intro = 
 
 |---3-3-3-3----3-3-3|3----3-3-3-3----3-|3-3-3--------------|
 |---3-3-3-3----3-3-3|3----3-3-3-3----3-|3-3-3---It-the-----|
 |---0-0-0-0----0-0-0|0----0-0-0-0----0-|0-0-0----same------|(x4)
 |---2-2-2-2----4-4-4|4----2-2-2-2----0-|0-0-0--chord-with--|
 |---3-3-3-3----5-5-5|5----2-2-2-2----2-|2-2-2--the-piano---|
 |---0-0-0-0----x-x-x|x----0-0-0-0----3-|3-3-3--------------|
  
 Verse  =

 |---3---3---3---3---|
 |---3---3---3---3---|
 |---0---0---0---0---|(x2)
 |---0---3---4---2---|
 |---2---2---5---2---|
 |---3---0---x---0---|

 Pre Chorus =

 |---3-3-3-3----3-3-3|-3----3-3-3-3----3-|3-3-3--------------|
 |---3-3-3-3----3-3-3|-3----3-3-3-3----3-|3-3-3--I-Know-it---|
 |---0-0-0-0----0-0-0|-0----0-0-0-0----0-|0-0-0---is-the-----|
 |---0-0-0-0----4-4-4|-4----2-2-2-2----0-|0-0-0--same-like---|
 |---2-2-2-2----5-5-5|-5----2-2-2-2----2-|2-2-2--the-intro---|
 |---3-3-3-3----x-x-x|-x----0-0-0-0----3-|3-3-3--------------|

 |---3-----3-----3---|--3----xxxxx-----|
 |---3-----3-----3---|--3----xxxxx-----|
 |---0-----0-----0---|--0----xxxxx-----|
 |---2-----4-----2---|--4----xxxxx-----|
 |---3-----5-----3---|--5----xxxxx-----|
 |---0-----x-----0---|--x----xxxxx-----| 

 Chorus = 

 |---3-3-3-3----3-3-3|-3----3-3-3-3----3-|3-3-3-|
 |---3-3-3-3----3-3-3|-3----3-3-3-3----3-|3-3-3-|
 |---0-0-0-0----0-0-0|-0----0-0-0-0----0-|0-0-0-|(x4)
 |---2-2-2-2----0-0-0|-0----4-4-4-4----2-|2-2-2-|
 |---3-3-3-3----2-2-2|-2----5-5-5-5----2-|2-2-2-|
 |---0-0-0-0----3-3-3|-3----x-x-x-x----0-|0-0-0-|

 Return To Intro(x2)

 Return To Verse(x2)
 
 Return To Chorus(x4)

 Bridge the same like the intro 

 And finish with = 
 
 Cadd9 Dsus4 Em G
Tap to rate this tab
# A B C D E F G H I J K L M N O P Q R S T U V W X Y Z